Guitar Tabs, Chords and Lyrics


Fade Me   Daniel Wesley



-------------------------------------------------------------------------------
			     Daniel Wesley - Fade Me
-------------------------------------------------------------------------------
Tabbed by: Frazer Constable
Email: boardin_on_powder@hotmail.com

Tuning: Standard

Another wicked song by Daniel Wesley. Pretty basic, but till a good'er! Hope you enjoi 
as much as I do! :)

Intro/Verse/Outro:
e|-------------------------------------------------------------------|
B|-------------------------------------------------------------------|
G|-------------------------------------------------------------------|
D|-----9-----9-----9-----9-----9--------6-----6-----6-----6-----6----|
A|---7-----7-----7-----7-----7---7\---4-----4-----4-----4-----4---4/-|
E|-0-----0-----7-----7-----7--------4-----4-----4-----4-----4--------|
  "Starin' at the mornin' sun,                      lookin' at you.."

Chorus:
e|-0--0-0-0/4~-4--4-4-4-x-4--4-4-x-4~-4--4-4-|
B|-0--0-0-0/5~-5--5-5-5-x-4--4-4-x-4~-4--4-4-|
G|-1--1-1-1/6~-6--6-6-6-x-4--4-4-x-4~-4--4-4-|
D|-2--2-2-2/6~-6--6-6-6-x-6--6-6-x-6~-6--6-6-|
A|-2--2-2-2/4~-4--4-4-4-x-6--6-6-x-6~-6--6-6-|
E|-0--0-0-0---------------4--4-4-x-4~-4--4-4-|
  "You,    you, you'll never fade me."

Solo:
e|-0-0-0-0--4-4-4-4--4-4-4-x-4~-4-x-4~-4--4-4-|
B|-0-0-0-0--5-5-5-5--5-5-5-x-4~-4-x-4~-4--4-4-|
G|-1-1-1-1--6-6-6-6--6-6-6-x-4~-4-x-4~-4--4-4-|
D|-2-2-2-2--6-6-6-6--6-6-6-x-6~-6-x-6~-6--6-6-|
A|-2-2-2-2--4-4-4-4--4-4-4-x-6~-6-x-6~-6--6-6-|
E|-0-0-0-0-------------------4~-4-x-4~-4--4-4-|

Thanks for checkin' it out! Any corrections/comments, e-mail me!

- Frazer.

| /  slide up
| \  slide down
| h  hammer-on
| p  pull-off
| ~  vibrato
| +  harmonic
| x  Mute note


Important: The song above is NOT stored on the Chordie server. The original song is hosted at www.guitaretab.com. Chordie works as a search engine and provides on-the-fly formatting. Chordie does not index songs against artists'/composers' will. To remove this song please click here.

This song is displayed as text-only. Transposing and tuning is only available for chordpro-songs.

Login - add to songbook

Rating click stars to rate

Layout
Accuracy

SHARE PAGE  




You need to log in to post comments