Chordie logo


Code Of The Road Spot   Danko Jones



Code of the Road Spot - Danko Jones

Standart Tuning : E A D G B E

Tabbed by Hybridhelix666

Intro :

E|-5-5-5-4-4-4-4-4-4-4-4-4-4-4-4-4--|
B|----------------------------------|
G|----------------------------------|
D|----------------------------------|
A|----------------------------------|
E|----------------------------------|

E|5-5-5-4-4-4---------------------|
B|--------------------------------|
G|-------------4-4-4-4-4-4-4-4-4--|
D|--------------------------------|
A|--------------------------------|
E|--------------------------------|

Verse :

E|-----------------------------------------------------|
B|-----------------------------------------------------|
G|-----------------------------------------------------|
D|-6-6-6-6-6-6-6-6-------------------------------------|
A|-4-4-4-4-4-4-4-4---7-7-7-7-7-7-7-7-7---9-9-9-9-9-9-9-|
E|-------------------5-5-5-5-5-5-5-5-5---7-7-7-7-7-7-7-|

Chorus :

E|----------------------------------------------------|
B|----------------------------------------------------|
G|----------------------------------------------------|
D|-9-9-9-11-11-11-6-6-6-6-6-6-6-6---------------------|
A|-7-7-7-9-9-9-9--4-4-4-4-4-4-4-4---7-7-/9-x-9~~~~~~--|
E|----------------------------------5-5-/7-x-7~~~~~~~-|

After Chorus before second Verse it comes a lead but only first time

E|--------------|
B|----------14--|~~~~~~~~~ let ring
G|-------13-----|
D|-11-14--------|
A|--------------|
E|--------------|


Bridge :

E|-5-5-5-4-4-4-4-4-4-4-4-4-4-4-4-4-4-5-5-5-4-4-4-4-4-4----------|
B|--------------------------------------------------------------|
G|------------------------------------------------------4-4-4-4-|
D|--------------------------------------------------------------|
A|--------------------------------------------------------------|
E|--------------------------------------------------------------|

Just one time it's , but then it turns back normal , just listen to it

E|-5-5-5-7-7-7-4-4-4-4-4-4-4-4-4-4-|
B|---------------------------------|
G|---------------------------------|
D|---------------------------------|
A|---------------------------------|
E|---------------------------------|


Outro :

Just like Chorus  but it ends like this :

E|-----------|
B|-----------|
G|-----------|
D|-----------|
A|-7-x-9-x-9-| ~ let ring
E|-5-x-7-x-7-| ~ let ring




Important: The song above is NOT stored on the Chordie server. The original song is hosted at www.guitaretab.com. Chordie works as a search engine and provides on-the-fly formatting. Chordie does not index songs against artists/composers will. To remove this song please click here.

This song is displayed as text-only. Transposing and tuning is only available for chordpro-songs.

Login - add to songbook

Rating click stars to rate

Layout
Accuracy

SHARE PAGE  




You need to log in to post comments