Guitar Tabs, Chords and Lyrics


Snakes Of Christ   Danzig



SNAKES OF CHRIST
================
transcription: John Christ, Liam Wolfen Cullen, Ryq

  intro/main riff:
E|---------------------------------|---------------------------------|
B|---------------------------------|---------------------------------|
G|---------------------------------|---------------------------------|
D|--ah----ah----ah-----------------|--ah----ah----ah---------7--/x\--|
A|---7~----6~----5~----------------|---7~----6~----5~--------7--/x\--|
E+-5-----5-----5-----5-8---5---8p5-|-5-----5-----5-----5-8---5--/x\--+
 |                                                                   |
 |                                                                   |
G+---------------------------------|---------------------------------+
D|---------------------------------|---------------------------------|
A|---------------------------------|---------------------------------|
E|-5-5-5-5-5-5-5-5-5-5-5-5-5-5-5-5-|-5-5-5-5-5-5-5-5-5-5-5-5-5-5-5-5-|


  Verse 1:
E|---------------------------------|-------------------5-------------|
B|---5---------------4-------------|---3---------------5-------------|
G|---2---------------2-------------|---2---------------2-------------|
D|---5---------------5-------------|---5---------------2-------------|
A|-0---------------0---------------|-0---------------0---------------|
E+---------------------------------|---------------------------------+
 |                                                                   |
 |                                                                   |
G+---------------------------------|---------------------------------+
D|---------------------------------|---------------------------------|
A|---------------------------------|---------------------------------|
E|-5-5-5-5-5-5-5-5-5-5-5-5-5-5-5-5-|-5-5-5-5-5-5-5-5-5-5-5-5-5-5-5-5-|


  Verse 2:                            chorus riff:
E|---------------------------------| |-------------------|
B|---------------------------------| |-------------------|
G|---------------------------------| |-------------------|
D|-ah------ah------ah----------75--| |-------------------|
A|--7~------6~------5~-------56--75| |-----7-6---7-6-5---|
E|-5-------5-------5-------58------| |-5-------5-------8-|


  Bridge 1:                           bridge 2:
E|---------------------------------| |--------------------------------|
B|---------------------------------| |--------------------------------|
G|---------------------------------| |--------------------------------|
D|---------------------------------| |--------------------------------|
A|---4~----3~----2~----------------| |---5~----4~----3~---------------|
E|-2-----2-----2-----2-5---2---5p2-| |-3-----3-----3-----3-6---3--6p3-|

Notes:  The bass plays an A pedal tone during the riffs and verses, then
        Follows the basic chords during the chorus.  During the bridge/solo 
        Section, the bass plays a figure yet to be transcribed.  Although 
        Transcribed at the fifth fret, this song can also be played using 
        The open A string.





Important: The song above is NOT stored on the Chordie server. The original song is hosted at www.guitaretab.com. Chordie works as a search engine and provides on-the-fly formatting. Chordie does not index songs against artists/composers will. To remove this song please click here.

This song is displayed as text-only. Transposing and tuning is only available for chordpro-songs.

Login - add to songbook

Rating click stars to rate

Layout
Accuracy

SHARE PAGE  




You need to log in to post comments