Chordie logo

Deserts Eating Oceans   Daphne Loves Derby



Intro
E  :----------------|----------0-----|----------0-----|---------0---------|
B  :--0-------------|--0---------0---|--3---------3---|-------1-----1-----|
G  :----0-----------|----0---------0-|----3---------3-|-----2---------2---|
D  :------2---------|------2---------|------2---------|2-h3-------------3-|
A  :3---------------|3---------------|3---------------|-------------------|
E  :----------------|----------------|----------------|-------------------|

E  :------0---------|----------0-----|----------0-----|------------------|
B  :----3-----3-----|----1-0-----1---|----------------|------0-----------|
G  :--1---------1---|--------------0-|------5-----5---|----0-------------|
D  :3-------------3-|2-3-------------|----0---------0-|--2---------2-3-2-|
A  :----------------|----------------|--3-------------|3---------3-------|
E  :----------------|----------------|4---------------|------------------|

E  :------------------|
B  :--0---------------|
G  :----0-------------| 
D  :------2-----2-3-2-|
A  :3---------3-------|
E  :------------------|

Part After That
E  :----------------------|----------------|--------1---1---|
B  :3-5-3---------5---5---|5---5---5---5---|5---5---1---1---|
G  :------5-4-5-4-5---5---|5---5---3---3---|3---3---2---2---|
D  :--------------5---5---|5---5---5---5---|5---5---3---3---|
A  :----------------------|----------------|----------------|
E  :----------------------|----------------|----------------|

E  :1---1---1---1---|1---1---1---1---|1---1---1---1---|1---1-----------|
B  :1---1---1---1---|1---1---1---1---|1---1---0---0---|0---0---5---5---|
G  :2---2---1---1---|1---1---0---0---|0---0---0---0---|0---0---5---5---|
D  :3---3---3---3---|3---3---3---3---|3---3---3---3---|3---3---5---5---|
A  :----------------|----------------|----------------|----------------|
E  :----------------|----------------|----------------|----------------|

E  :----------------|----------------|
B  :5---5-6-5---5---|5---------------|
G  :5---5---5---5---|5---------------|
D  :5---5---5---5---|5---------------|
A  :----------------|----------------|
E  :----------------|----------------|
I don't know the part after that until he starts singing "I can't hide from my own eyes"
E  :------10-----------|
B  :12-13--------------|
G  :-------------------|
D  :-------------------| x4
A  :-------------------|
E  :-------------------|

E  :------15-----------|
B  :12-13--------------|
G  :-------------------|
D  :-------------------| x4
A  :-------------------|
E  :-------------------|



Important: The song above is NOT stored on the Chordie server. The original song is hosted at www.guitaretab.com. Chordie works as a search engine and provides on-the-fly formatting. Chordie does not index songs against artists/composers will. To remove this song please click here.

This song is displayed as text-only. Transposing and tuning is only available for chordpro-songs.

Login - add to songbook

Rating click stars to rate

Layout
Accuracy

SHARE PAGE  



You need to log in to post comments