Guitar Tabs, Chords and Lyrics


Kinky Clashes   Unknown










Author/Artist: Dark Wanderers
Title: Kinky Clashes
Album: The Careless Years
Transcribed by: Tab Guru
Email: Tabguru120568@hotmail.com

tune down half a step and listen to the song
listen for the rhythm, hope u enjoy was one of the
first songs i learnt bit tricky but worth learnin, it was
taught to me by a guy called Harry, he is a guitar
master - Tab Guru

----------------------|-----------------|-----------------|-------------------|
----------------------|-----------------|-----------------|-------------------|
----------------------|-----------------|-----------------|-3-3--3-3--5-5-5---|
-5-5-5-5-5--5-5-5-5-5-|-2-2-2-2-2-2-2-2-|-3-3--3-3--5-5-5-|-3-3--3-3--5-5-5---|
-5-5-5-5-5--5-5-5-5-5-|-2-2-2-2-2-2-2-2-|-3-3--3-3--5-5-5-|-1-1--1-1--4-4-4---|
-0-0-3-3-3--0-0-4-4-4-|-0-0-1-1-0-0-1-1-|-1-1--1-1--4-4-4-|-------------------|
 Intro, play  x 5

----------------------|-----------------|-----------------|-------------------|
-2-2---------2-2------|-----------------|-----------------|-------------------|
-----0-0-1-1-----0-1--|-0-3-3-3---------|-0-2-2-4---------|---------2-2-4-6---|
----------------------|---------5-5-3-1-|---------4-6-6-5-|-2-2-3-3-----------|
----------------------|-----------------|-----------------|-------------------|
----------------------|-----------------|-----------------|-------------------|
 Solo play between 1st verse and chorus only

----------------------|-----------------|-----------------|-------------------|
-2-1-1----------------|-----------------|-2-3-/-5-5-2-2---|-4-5-5-------------|
-2-1-1----------------|--------7-7-7--1-|-2-3-/-5-5-2-3---|-4-5-5-------------|
-1-0-0--4-4-4--4-4-2--|-4-4-4--7-7-7--1-|-0-1-2-2-2-0-1---|-0-0-0--6-6-6------|
-2-1-1--4-4-4--4-4-2--|-4-4-4--5-5-5--0-|-2-3-/-5-5-2-3---|--------5-5-5------|
--------3-3-3--6-6-4--|-4-4-4-----------|-----------------|--------0-0-0------|
 Verse

----------------------|-----------------|-----------------|-------------------|
----------------------|-----------------|-----------------|-------------------|
-0-0-2-2-6-6-8-9-1-1--|-----------------|-2-2-6-6-8-9-1-1-|-------------------|
-0-0-2-2-6-6-8-9-1-1--|-0-0-2-2-6-6-8-9-|-2-2-6-6-8-9-1-1-|-------------------|
----------------------|-0-0-2-2-6-6-8-9-|-----------------|-0-0-2-2-6-8-9-1---|
----------------------|-----------------|-----------------|-0-0-2-2-6-8-9-1---|


Important: The song above is NOT stored on the Chordie server. The original song is hosted at www.guitaretab.com. Chordie works as a search engine and provides on-the-fly formatting. Chordie does not index songs against artists'/composers' will. To remove this song please click here.

This song is displayed as text-only. Transposing and tuning is only available for chordpro-songs.

Login - add to songbook

Rating click stars to rate

Layout
Accuracy

SHARE PAGE  




You need to log in to post comments