Guitar Tabs, Chords and Lyrics


Broken Wings   Darkest Hour



BROKEN WINGS by DARKEST HOUR
Half Step down Drop C# tuning
GTR.1  - play this the entire song
Eb|----------------------------------------|
Bb|----------------------------------------|
F#|----------------------------------------|
C#|--------7--------7-----10p8---8---------|
G#|------5-----7/8----8------------10-8-7--|
C#|----0-----0----------0------0-----------|

Eb|----------------------------------------|
Bb|----------------------------------------|
F#|----------------------------------------|
C#|----------------------------------------|
G#|-------7-------7/8-8-----8-----8---8/7--|
C#|----10---10-10---------5---5-5---5------|


end on

C#|----0--


GTR.2  - messes around with this for the whole song (listen to song for timing)

Eb|-------------------------------|
Bb|-------------------------------|
F#|-------------5-5-5-5-5-5-5-5---|
C#|----7-7-7-7--------------------|
G#|-------------------------------|
C#|-------------------------------|

end on

C#|----7--


GTR.3  - plays this for the whole song
Eb|---------------------------------------|
Bb|---------------------------------------|
F#|---------------------------------------|
C#|----5---7-7--10--10-10-10--10--7--5-5--|
G#|----7---8-8--10--10-10-10--10--8--7-7--|
C#|---------------------------------------|

end on
C#|----7-7--|


Important: The song above is NOT stored on the Chordie server. The original song is hosted at www.guitaretab.com. Chordie works as a search engine and provides on-the-fly formatting. Chordie does not index songs against artists'/composers' will. To remove this song please click here.

This song is displayed as text-only. Transposing and tuning is only available for chordpro-songs.

Login - add to songbook

Rating click stars to rate

Layout
Accuracy

SHARE PAGE  




You need to log in to post comments