Chordie logo

One Way Ticket   Darkness



One Way Ticket - The Darkness


Verse

e|---------------------------------------|
B|---------------------------------------|
G|--4-4-4-----6-6-6-----9-----4---2-2--2-| 
D|--4-4-4-----6-6-6-----9-----4---2-2--2-|	
A|--2-2-2-----4-4-4-----7-----2---0-0--0-| 
E|---------------------------------------|

Pre Chorus

e|-------------------------------|					
B|-------------------------------|
G|-------------------------------|
D|--4-4-4-4-4-4-4-4-4-4-4-4------| 	x 3
A|--2-2-2-2-2-2-2-2-2-2-2-2-0----|
E|-----------------------------0-|

e|------------|
B|------------|
G|------------|
D|------------| 
A|--0--4------|
E|--------2~--|

Chorus

e|-------------------------------------------------|
B|-------------------------------------------------|
G|-------------------------------------------------|
D|---------------4--4-4-4-4--------------4-4-6-4---| x 2
A|--------0------2--2-2-2-2--------0-2-4-2-2-4-2---|
E|--0-2-4---4-0--------------0-2-4-----------------|

Solo

e|-9p7h9-------------------------------------------|
B|-------9--7----------6---------------------------|
G|-------------9---6h7---7---6---------------------|
D|------------------------------4h6--4--------3----|
A|--------------------------------------7—4h5---5--|
E|-------------------------------------------------|

e|-9p7h9-------------------------------------------|
B|-------9-6h7-5-----6-----------------------------|
G|----------------6h7---7---4h6--------------------|
D|------------------------------6--4----------3----|
A|--------------------------------------7—4h5---5--|
E|-------------------------------------------------|

e|--9-9-9-9-9-11^-11^p9---9-------------------------|
B|-9-9-9-9--------------12--12-9--------------------|
G|-------------------------------11-9----11----9~---|
D|------------------------------------11----11------|
A|--------------------------------------------------|
E|--------------------------------------------------|

e|--------------------12-14^-14^p12----12----14------|
B|------14----14----14--------------14----14----14~--|
G|--/13----13----13----------------------------------|
D|---------------------------------------------------|
A|---------------------------------------------------|
E|---------------------------------------------------|
e|----9---9---9-------------------------------------------|
B|--9-9-9-9-9-9----9^-9^----9^----11----9^---11----9^-----|
G|--9---9---9------9^-9^----9^----11----9^---11----9^-----|
D|--------------11-------11----11----11---11----11----11--|
A|--------------------------------------------------------|
E|--------------------------------------------------------|

e|--12-11-9----9------------------------------------------------|
B|----------12---12-10-9----------------------------------------|
G|-----------------------9----11----9-------------10------------|
D|-------------------------11----11---11----11-12----12-11-11\--|
A|--------------------------------------------------------------|
E|--------------------------------------------------------------|



Verse x5
Pre chorus
Chorus
Verse x4
Pre chorus
Chorus
Solo
Pre chorus
Chorus x2



Important: The song above is NOT stored on the Chordie server. The original song is hosted at www.guitaretab.com. Chordie works as a search engine and provides on-the-fly formatting. Chordie does not index songs against artists/composers will. To remove this song please click here.

This song is displayed as text-only. Transposing and tuning is only available for chordpro-songs.

Login - add to songbook

Rating click stars to rate

Layout
Accuracy

SHARE PAGE  

You need to log in to post comments