Guitar Tabs, Chords and Lyrics


Triumphant Gleam   Darkthrone



Song:      Triumphant Gleam
Album:     Panzerfaust
Band:      DARKTHRONE!!!
Tabbed by: unholyfilosofem
email:     youbastards_sjr@hotmail.com

. = Palm Mute
~ = Bend

Riff A
e|---------------------------------------------------|
B|---------------------------------------------------|
G|---------------------------------------------------|
D|---------------------------------------------------|
A|---------9----------7----------4-------------------|
E|-0-0-0-0-7--0-0-0-0-5--0-0-0-0-2--0-3~-------------|
  . . . .    . . . .    . . . .
x 8

Riff B
e|----------------------------------------------------|
B|----------------------------------------------------|
G|----------------------------------------------------|
D|----------------------------------------------------|
A|----------------------------------------------------|
E|-2"------5"------4"------8"---7"--------------------|
  .       .       .       .    .
(All these in eighth note tremolo)
x 2

Riff A x 6

Riff C                           Finish second time with this
e|--------------------------------|-------------------|
B|--------------------------------|-------------------|
G|--------------------------------|-------------------|
A|--------------------------------|-------------------|
D|-4---4/3--2----------7---8\3--5-|-------------------|
E|-2---2/1--0---1/11\3-5---6\1--3-|-3~----------------|
x 2

Riff D
e|----------------------------------------------------|
B|----------------------------------------------------|
G|----------------------------------------------------|
A|----------------------------------------------------|
D|-6--6--6-6-6--6--6--6-6-6--6--7--8--9--10-----------|
E|-4--4--4-4-4--4--4--4-4-4--5--6--7--8---9-----------|
x 4

Riff E
e|----------------------------------------------------|
B|----------------------------------------------------|
G|----------------------------------------------------|
A|-8-8-8-8-8-8-8-8-8-8-7---5-5-5-5-5-5-5-5-5-5--------|
D|-6-6-6-6-6-6-6-6-6-6-5---3-3-3-3-3-3-3-3-3-3-6--8---|
E|---------------------------------------------4--6---|
x 1

Riff F
e|----------------------------------------------------|
B|----------------------------------------------------|
G|----------------------------------------------------|
A|-8-8-8-8-8-8-8-8-8-8-----5-5-5-5-5-5-5-5-5-5--------|
D|-6-6-6-6-6-6-6-6-6-6-5~--3-3-3-3-3-3-3-3-3-3-6--8---|
E|---------------------------------------------4--6---|
x1

Riff E x 1
Riff F x 1
Riff D x 4
Riff A x 6
Riff B x 3
Riff D x 4
Riff F x 3
Riff E x 1
Riff D x 4



Important: The song above is NOT stored on the Chordie server. The original song is hosted at www.guitaretab.com. Chordie works as a search engine and provides on-the-fly formatting. Chordie does not index songs against artists'/composers' will. To remove this song please click here.

This song is displayed as text-only. Transposing and tuning is only available for chordpro-songs.

Login - add to songbook

Rating click stars to rate

Layout
Accuracy

SHARE PAGE  




You need to log in to post comments