Guitar Tabs, Chords and Lyrics


Lifeless   Darkthrone



							"Lifeless" by Darkthrone
							Ravishing Grimness Album
							transcribed by Knut Farstad
							Guitarist, Torment Spirits
Downloaded exclusively from:
The Black Death... Black & Death Metal Page
http://theblackdeath.cjb.net

	Tuned to E (EADGBe)

		Riff A
------------------------------------------------------------------------------|
------------------------------------------------------------------------------|
------5--4--4-4-4-4-4-3-4-7-7-7-7-7-------5--4--4-4-4-4-4-3-4-5-5-5-5-5-5-----|
------3--2--2-2-2-2-2-1-2-5-5-5-5-5-------3--2--2-2-2-2-2-1-2-3-3-3-3-3-3-----|
--3----------------------------------3----------------------------------------|
--1----------------------------------1----------------------------------------|
                                                                              
		Riff B
-------------------------------------------------------------------------------
-------------------------------------------------------------------------------
-------------------------------------------------------------------------------
---5--8--7--7-7-7-7-7-7-7-7----------5---8--7--7-7-7-7-7-7-7-7-----------------
---5--8--7--7-7-7-7-7-7-7-7--7b-(8)--5---8--7--7-7-7-7-7-7-7-7-----------------
---3--6--5--5-5-5-5-5-5-5-5----------3---6--5--5-5-5-5-5-5-5-5--8-8-8-8-8-8----
                                                                              
															1st ending
--------------------------------------------|---------------------------------|
------------------------------------------------------------------------------|
--------------------------------------------|---------------------------------|
--5--8--7--7-7-7-7-7-7-7-7-7----------------|--5--8---------------------------|
--5--8--7--7-7-7-7-7-7-7-7-7--8-8-8-8-8--8-----5--8---------------------------|
--3--6--5--5-5-5-5-5-5-5-5-5----------------|--3--6--5--5-5-5-5-5-5-5-5-5--7b-|
                                                                              
	2nd ending
-----------------|
-----------------|
-----------------|
---5--8--7-------|
---5--8--7-------|
---3--6--5-------|
                                                                              
		Riff C
-----------------------------------------------------------
-----------------------------------------------------------
-----------------------------------------------------------
---7---7---7---7---7-----------7---7---77---7---7---7--9b--
---7---7---7---7---7-----------7---7---77---7---7---7--7b--


Important: The song above is NOT stored on the Chordie server. The original song is hosted at www.guitaretab.com. Chordie works as a search engine and provides on-the-fly formatting. Chordie does not index songs against artists'/composers' will. To remove this song please click here.

This song is displayed as text-only. Transposing and tuning is only available for chordpro-songs.

Login - add to songbook

Rating click stars to rate

Layout
Accuracy

SHARE PAGE  




You need to log in to post comments