Guitar Tabs, Chords and Lyrics


Benediction   Darling Violetta



Darling Violetta - Benediction
Tabbed By: Daniel Taylor
EMail: danielt88@hotmail.com


Intro:

e--9p7------9p7-----9p7-----9p7-----7p5-----7p5-----7p5-----7p5-----
B-------7--------7-------7-------7-------5-------5-------5-------5--
G-------------------------------------------------------------------
D-------------------------------------------------------------------
A-------------------------------------------------------------------
E-------------------------------------------------------------------

Verse:

e--------9-------9--7-----7--9-----
B------7---------------7-----------
G----7-----------------------------


Important: The song above is NOT stored on the Chordie server. The original song is hosted at www.guitaretab.com. Chordie works as a search engine and provides on-the-fly formatting. Chordie does not index songs against artists/composers will. To remove this song please click here.

This song is displayed as text-only. Transposing and tuning is only available for chordpro-songs.

Login - add to songbook

Rating click stars to rate

Layout
Accuracy

SHARE PAGE  




You need to log in to post comments