Chordie logo


Little Bombs   Dashboard Confessional



Tab: Little Bombs
Artist: Dashboard Confessional
NEW song from DC's new album out this Oct.
GET IT.

Tabbed by: Justin
myspace.com/moonspellbeach

TUNED to D Flat.

For now, just listen to the song on the DC myspace to learn the strumming patterns and 
progressions.

    "How can you ask for forgiveness..." (use very "hoppy" fingers)
db|----0------4-4-5-0-----4-4-4-4-5-0--|
db|----0------0-0-0-0-----0-0-0-0-0-0--|
Db|----0------0-0-0-0-----0-0-0-0-0-0--|
Db|----0------4-4-5-0-----4-4-4-4-5-0--|
Ab|----0------0-0-0-0-----0-0-0-0-0-0--|
Db|----0------0-0-0-0-----0-0-0-0-0-0--|

"so now you think that your crimes are victim less?"
db|----0---------0-----------------|
db|----0---------0-----------------|
Db|----0---------0-----------------|
Db|----0---------0-----------------|
Ab|----4---------5-----------------|
Db|----4---------5-----------------|

(then go back and repeat these two
for the next part of the verse until you get to this part)

  "Down......."
db|--0--------0--------0--------0------------|
db|--0--------0--------0--------0------------|
Db|--0--------0--------0--------0------------|
Db|--0--------0--------0--------0------------|
Ab|--9--------5--------9--------5------------|
Db|--9--------5--------9--------5------------|

"We all pay in time,"
db|----0---------0-----------------|
db|----0---------0-----------------|
Db|----0---------0-----------------|
Db|----0---------0-----------------|
Ab|----4---------5-----------------|
Db|----4---------5-----------------|

    "so how will you clear your conscience when your
db|----0------4-4-5-0-----4-4-4-4-5-0--|
db|----0------0-0-0-0-----0-0-0-0-0-0--|
Db|----0------0-0-0-0-----0-0-0-0-0-0--|
Db|----0------4-4-5-0-----4-4-4-4-5-0--|
Ab|----0------0-0-0-0-----0-0-0-0-0-0--|
Db|----0------0-0-0-0-----0-0-0-0-0-0--|
   ...clock unwinds?"
db|----0---------0-----------------|
db|----0---------0-----------------|
Db|----0---------0-----------------|
Db|----0---------0-----------------|
Ab|----4---------5-----------------|
Db|----4---------5-----------------|

(Repeat that whole section for all of the verses.)

CHORUS:

             "You ought to know.... "
db|--0--------0--------0--------0------------|
db|--0--------0--------0--------0------------|
Db|--0--------0--------0--------0------------|
Db|--0--------0--------0--------0------------|
Ab|--0--------0--------4--------5------------|
Db|--0--------0--------4--------5------------|


(Then repeat parts of the verse to fit in with the rest of the song.)

END ON:

db|--0------|
db|--0------|
Db|--0------|
Db|--0------|
Ab|--0------|
Db|--0------|


There.
All done.
A very fun song.
Good luck with reaching the high screaming notes.
Don't forget to buy this CD. It will be phenomenal.
Later
-justin


Important: The song above is NOT stored on the Chordie server. The original song is hosted at www.guitaretab.com. Chordie works as a search engine and provides on-the-fly formatting. Chordie does not index songs against artists/composers will. To remove this song please click here.

This song is displayed as text-only. Transposing and tuning is only available for chordpro-songs.

Login - add to songbook

Rating click stars to rate

Layout
Accuracy

SHARE PAGE  




You need to log in to post comments