"yes"; ?> Currents by Dashboard Confessional - guitar chords, guitar tabs and lyrics - chordie
E|-------14------14------14--------|

B|---12------12------12------14----|
G|---------------------------------|
D|---------------------------------|
A|---------------------------------|
E|---------------------------------|
|----------------------------------|
|----------------------------------|
|----------8--11-----11------------|
|---9--11---------9----------------|
|----------------------------------|
|----------------------------------|
E|-----------------|
B|--------4h5p4----|
G|----4/6----------|
D|-----------------|
A|-----------------|
E|-----------------|

 F#244322
 Asus2           002200
E 022100
 G#m466444
 C#m             X46650

INTRO:

INTRO RIFF
E|-------14------14------14--------|
B|---12------12------12------14----|
G|---------------------------------|
D|---------------------------------|
A|---------------------------------|
E|---------------------------------|


and then...

Major Riff 1
|----------------------------------|
|----------------------------------|
|----------8--11-----11------------|
|---9--11---------9----------------| x2
|----------------------------------|
|----------------------------------|



 Bsus4F#m7add11AsusE

Verse 1:

Bsus4 F#(barred) Asus
The air is visible around you, rising up and off your lips in slow currents
 EBsus4
And i watch as your face is framed in its slow currents
F#(barred)
Drifting curls a trailing path
 AsusE
A long drag becomes a dress of blue and ash

1st CHORUS:

|----------------------------------|
|----------------------------------|
|----------8--11-----11------------|
|---9--11---------9----------------|
|----------------------------------|
|----------------------------------|


 Bsus4EG#m
 If it is born in flames then we should let it burn
 E
Burn as brightly as we can
 Bsus4EG#m
 And if its gotta end then let it end in flames
 EBsus4
Let it burn all the way down.


E|-----------------|
B|--------4h5p4----|
G|----4/6----------|
D|-----------------|
A|-----------------|
E|-----------------|



Verse 2:

 Bsus4F#Asus
 The air is visible around us, turning in it's simple steps on slow currents
 EBsus4F#
And i watch as it pirouettes and spins in sloooooow mo-tion
 AsusE
A long drag becomes a slow dance
 G#mE
 in a halo...of ember.

2nd CHORUS:

|----------------------------------|
|----------------------------------|
|----------8--11-----11------------|
|---9--11---------9----------------|
|----------------------------------|
|----------------------------------|


 Bsus4EG#m
 If it is born in flames then we should let it burn
 E
Burn as brightly as we can
 Bsus4EG#m
 And if its gotta end then let it end in flames
 EAsus
Let it burn all the way down.

{...At the word "down" from that last line major riff 1 ends and major riff 2 starts up
and continues...}

Bridge:

 Bsus4
 All the way down
 AsusBsus4
 And if this is ever meant to end, then i hope it ends where it began
 Asus
 So hot with love, we burned our hands
 Bsus4Asus
 If this is ever meant to end, then i hope it ends where it began
C#m E F#m7add11 <-This part is missing something
So hot with love, it burns our hands

{lead guitar:... keeps playing major riff 2 until "so hot with love" so that "it burns
hands" lyric stands out"}

3rd CHORUS:

 Bsus4EG#m
 If it is born in flames then we should let it burn
 E
Burn as brightly as we can
 Bsus4EG#m
 And if its gotta end then let it end in flames
 E
Let it burn--
 Bsus4EG#m
 Let it burn (if it's gotta end)
 EBsus4
Let it burn (if it's gotta end)
 EG#mEBsus4
(Let it burn) Ends where it began so hot with love it burns our hands.

{at "hands" all instruments except the guitar playing riff 2 ends, riff 2 continues 2
lead guitar starts playing intro riff also...}

Ending riff
E|-------14------14------14--------|
B|---12------12------12------14----|
G|---------------------------------|
D|---------------------------------| both riffs play together.
A|---------------------------------|
E|---------------------------------|
E|-----------------|
B|--------4h5p4----|
G|----4/6----------|
D|-----------------|	x2
A|-----------------|
E|-----------------|


-fade-


Asus Bsus4 E F# G#m
variations - click chord images
Transpose chords:
Tuning:
Cool service:
View: Size:
A  A  A
Rating:
Layout:
  • Currently 2.7/5 Stars.
  • 1
  • 2
  • 3
  • 4
  • 5
 
Accuracy:
  • Currently 3.3/5 Stars.
  • 1
  • 2
  • 3
  • 4
  • 5
 
click stars to rate
Chordie recommends:
Learn to play songs at Jamplay.com with video guitar lessons
Songbook:
Login to add this song to your songbook
Support the artist
Preview/buy this song
MSN Music
Why this non-profit ad?

 
login to add comments/video/corrections