"yes"; ?> Cant Grow Tired Of Your Love by Dave Barnes - guitar chords, guitar tabs and lyrics - chordie

Cant Grow Tired Of Your Love

Dave Barnes

-------------------------------------------------------------------------------

-------------------------------------------------------------------------------

 C#mF#
eb|----------------------------------|
Bb|-5-4h5-------2-4------------------|
Gb|-4-4---------3-3--3---------------|
Db|-------------4-4--4---------------|
Ab|-4-4------------------------------|
Eb|---------2-2------2---------------|


Other Chords Used
 C#mF#7ABEG#
eb|---4----2---5--0--0---4---------------|
Bb|---5----2---5--0--0---4---------------|
Gb|---6----3---6--4--1---5---------------|
Db|---6----2---7--4--2---6---------------|
Ab|---4----4---7--2--2---6---------------|
Eb|--------2---5-----0---4---------------|


 C#mF#
When you say you love me, it's something I can feel
 C#mF#
Your words like fire melt my heart of steel
 C#mF#
Only you do this to me
 C#mF#
So let's take two and turn us into three

 C#mF#7
Cause I can't grow tired of your love

 C#mF#
Tell me baby, what can I do 
 C#mF#
To take the love you give and give it back to you
 C#mF#
Break it down, let me know  
 C#mF#
Point your finger baby, I will go

 C#mF#7
Cause I can't grow tired of your love

 AEBC#m
 The sun will go down, the tides will change
 AEB
 It seems that nothing stays the same
 AEBC#m
 You and me baby, we're breaking rules
 AEG#
 We're leaving lonely to the fools

Cause I can't grow tired of your love

Solo:
eb|-/9-9---------------------------------------------------------------------|
Bb|--------------/9-7--------9-7---7---------9-------------------------------|
Gb|--------9-9-9------9-6--------9---9-6---6-9-6-----8-8h9-------11-9--------|
Db|--------------------------------------9-----------9-9h8-----8-------------|
Ab|--------------------------------------------------------------------------|
Eb|--------------------------------------------------------------------------|
eb|-12-9-------9------12-14-16-14-12----16-12-----12-------------------------|
Bb|------12-9------14----------------14-------14-----------------------------|
Gb|---------------------------------------------------unfinished-------------|
Db|--------------------------------------------------------------------------|
Ab|--------------------------------------------------------------------------|
Eb|--------------------------------------------------------------------------|


| / slide up
| \ slide down
| h hammer-on
| p pull-off
| ~ vibrato
| + harmonic
| x Mute note
===============================================================================


A B C#m E F# F#7 G#
variations - click chord images
Transpose chords:
Tuning:
Cool service:
View: Size:
A  A  A
Rating:
Layout:
  • Currently 3/5 Stars.
  • 1
  • 2
  • 3
  • 4
  • 5
 
Accuracy:
  • Currently 4.5/5 Stars.
  • 1
  • 2
  • 3
  • 4
  • 5
 
click stars to rate
Chordie recommends:
Learn to play this song & others via video guitar lessons at JamPlay.com
Songbook:
Login to add this song to your songbook
Support the artist
Preview/buy this song
MSN Music
Why this non-profit ad?

 
login to add comments/video/corrections