Chordie logo

Blue Rondo A La   Dave Brubeck







 jamesb@NEVADA.EDU
Message-id: 
Content-transfer-encoding: 7BIT


Blue Rondo A La Turk
Dave Brubeck
tab by Doug Ahern, ahern@harpo.dev.uga.edu

It was pointed out to me that in my first posting of this song,
the tab notation was confusing.  Where the first line looked like:
|--1--2--1--2--1--2--3--|.  This is the 9/8 time broken down, I don't
know how it would sound if played on some string (I'll have to try it
out though :-) ).  To remedy, I've taken out the dashes.

first part:
9/8  . 1  2  1  2  1  2  1  2  3  . 1  2  1  2  1  2  1  2  3 count
   E |----------------------------|----------------------------|
   B |----------------------------|----------------------------|
   G |----------------------------|----------------------------|
   D |-4-----4-----4--0-----------|-4-----4-----4--0--5--4--2--|
   A |----5-----5--------4--5--7--|----5-----5-----------------|
   E |----------------------------|----------------------------|

9/8  . 1  2  1  2  1  2  1  2  3  . 1  2  3  1  2  3  1  2  3 count
   E |----------------------------|----------------------------|
   B |----------------------------|----------------------------|
   G |----------------------------|----------------------------|
   D |-4-----4-----4--0-----------|-------4-----4--5-----5--7--|
   A |----5-----5--------4--5--7--|-5--7-----7--------7--------|
   E |----------------------------|----------------------------|


second part:

9/8  . 1  2  1  2  1  2  1  2  3  . 1  2  1  2  1  2  1  2  3
   E |----------------------------|----------------------------|
   B |----------------------------|----------------------------|
   G |----------------------------|----------------------------|
   D |----------------------------|----------------------------|
   A |----4-----4-----4-----------|----4-----4-----4-----4--5--|
   E |-------------------7--5--4--|-------------------7--------|

9/8  . 1  2  3  1  2  3  1  2  3
   E |----------------------------|
   B |----------------------------|
   G |----------------------------|
   D |----------------------------|
   A |-4--------------------------|
   E |----7--5--7--5--4--5--4--2--|

Peace,
Paul Z                           audsm@asuacad                    :-)

--
     "Life is what happens to you while you're busy making other plans"



Important: The song above is NOT stored on the Chordie server. The original song is hosted at www.guitaretab.com. Chordie works as a search engine and provides on-the-fly formatting. Chordie does not index songs against artists/composers will. To remove this song please click here.

This song is displayed as text-only. Transposing and tuning is only available for chordpro-songs.

Login - add to songbook

Rating click stars to rate

Layout
Accuracy

SHARE PAGE  



You need to log in to post comments