Guitar Tabs, Chords and Lyrics


Katies Song   Dave Days



This is a pretty good song. It's my first tab, so y'know, sorry if it sucks.
It's probably nothing like he plays it, but I thought it sounded right. Ish.
It's pretty easy to improv some words in for someone else, which is why I stuck it on here.
Email me corrections at i-am-sam182@hotmail.co.uk. Not sure about the chorus, I think 
got that bit wrong completely...
Original artist, Dave Days, tabbed by Tucker.

Capo 5th.

Intro:

e|-3-3-3-3-3-3-3-3-|
B|--1-1-1-1-1-1-1-1|
G|-----------------|
D|-----------------|
A|-3-------3-------|
E|-----------------|

Verse:

e|-3-3-3-3-3-3-3-3-|
B|--1-1-1-1-1-1-1-1|
G|-------------0-0-|
D|---------3-3-----|
A|-3-3-3-3---------|
E|-----------------|   x4


Chorus (Bit dodgy, but meh. Email corrections?):

e|-----------------|
B|-4-4-5-5-4-4-4-4-|
G|--4-4-4-4-4-4-4-4|
D|-----------------|
A|-----------------|
E|-----------------|   x3

Then:

e|---------|
B|-4-4-5-5-|
G|--4-4-4-4|
D|---------|
A|---------|
E|---------|

In the video, it's played:
Intro;
Verse;
Chorus;
Intro;
Verse, but 3x;
Video of Alan;
Chorus;
Intro;
One bar of the Chorus.



Important: The song above is NOT stored on the Chordie server. The original song is hosted at www.guitaretab.com. Chordie works as a search engine and provides on-the-fly formatting. Chordie does not index songs against artists'/composers' will. To remove this song please click here.

This song is displayed as text-only. Transposing and tuning is only available for chordpro-songs.

Login - add to songbook

Rating click stars to rate

Layout
Accuracy

SHARE PAGE  




You need to log in to post comments