Guitar Tabs, Chords and Lyrics


Califnornia Gigolo   Dave Novini



California Gigolo By Dave Novini

Dropped D Tuning

Main Riff
E------------------------------------------|
B------------------------------------------|
G------------------------------------------|
D-----4-4-4-4-4-4-------4-4-4-4-4-4--------|
A-----2-2-2-2-2-2--0-2--2-2-2-2-2-2--3-2---|
D------------------0-2---------------3-2---|

Outro
E-----------------------------------------------|
B-----------------------------------------------|
G-----------------------------------------------|
D-----------------------------------------------|
A--------9----10--------7----8--------5---6---0-|


Important: The song above is NOT stored on the Chordie server. The original song is hosted at www.guitaretab.com. Chordie works as a search engine and provides on-the-fly formatting. Chordie does not index songs against artists'/composers' will. To remove this song please click here.

This song is displayed as text-only. Transposing and tuning is only available for chordpro-songs.

Login - add to songbook

Rating click stars to rate

Layout
Accuracy

SHARE PAGE  




You need to log in to post comments