Chordie logo


Ziggy Stardust Acoustic  David Bowie

------3-----------2----3----2----3----2---------0----------------------------------|


------------3----3----3----3----3--------------------------------------------------|


------2----2----2----2----2--------------------------------------------------------|

----------------------------------------------------------------2------------------|
----------------------------------------------------------3------------------------|
-----------------------------------------------------------------------------------|
--------------------------: Play x4 times
--------------------------:
-------0-------0----------:
-----0-------0------------:
---3-------2------0-------:
--------------------------:
Zi[G]ggy played guitar, jam[B]ming good with Weird and Gi[C]lly, The Spiders from
M[D]ars. He played it left h[G]and, but made it too [Em]far, Became the special [Am]man,
then we were Zig[C]gy's Band. Zi[G]ggy really sang, scr[B]ewed up eyes and screwed
down ha[C]irdo Like some cat from Ja[D]pan, he could lick 'em by smi[G]ling He could
leave 'me to h[Em]ang Came on so lo[Am]aded man, well hung and s[C]now white tan.
Ref:1 Played in barea chords

(on the (FM) release your indexfinger and press it back agian, (listen to the song))


[Am].....So w[GM]here were the sp[FM]iders while [Am]  the [GM]fly tried to b[FM]reak our balls
Just[Am]   the b[GM]eer light to g[FM]uide us, So we bit[D]ched about his fans and should
we
c[Em]rush his sweet hands?  Play intro x2


Vers:2
Zi[G]ggy played for time, ji[B]ving us that we were Vo[C]odoo The kids was just

cr[D]ass, he was the n[G]az, With God given [Em]ass He took it all too [Am]far but boy

could he play gu[C]itar.
Ref:2 played in Barea chords

.[Am]....Making l[GM]ove with his [FM]ego, [Am]  Ziggy su[GM]cked up in[FM]to his

mind, [Am]   Like a l[GM]eper mess[FM]iah When the k[D]ids had killed the man I had to
b[Em]reak up the band.
Then play the intro x4 times


Enjoy!


By: Carl Stare Sweden.

Important: The song above is NOT stored on the Chordie server. The original song is hosted at www.guitaretab.com. Chordie works as a search engine and provides on-the-fly formatting. Chordie does not index songs against artists/composers will. To remove this song please click here.

Text color:
Chord color:
Chord grids: 
Font size:    
Page size: 

Am B C D Em Fm G Gm
variations - click chord images

Login - add to songbook

Transpose chords

Tuning

Rating click stars to rate

Layout
Accuracy

SHARE PAGE  




You need to log in to post comments

davidthehut (report)

intro:
G D Dsus4 D Dsus4 D C Em Am G

jum (report)

Definately Bm instead of B.

krzykat (report)

Intro:
G D Dsus4 D Dsus4 D F* C* D* (play four times)
***
E|-------|-------|-------|
B|-------|-------|-------|
G|-----0-|-----0-|-------|
D|---3---|---0---|---0---|
A|-3-----|-2-----|-0-----|
E|-------|-------|-------|

hopfrog (report)

Bm not B maybe?