"yes"; ?> Andy Warhol by David Bowie - guitar chords, guitar tabs and lyrics - chordie

Andy Warhol

David Bowie

         ------


 A
Be a standing cinema
 CC/B
Dress my friends up just for show 
 AEmCD
 See Them as they really are    
 Em
 Put a peep hole in my brain
 A
Two new pence to have a go
 CC/B
I'd like to be a gallery
 AEmCD
 Put you all inside my show     

CHORUS 1:
 DAEmC
 Andy Warhol looks a scream
 ACGA
 Hang him on my wall 
 DAEmC
 Andy Warhol silver screen
 ACGAm7A
Can't tell them apart at all       

INTRO

Em* A
Andy walking Andy tired Andy take a little snooze
 CC/B
Tie him up when he's fast asleep
 AEmCD
 Send him on a pleasant cruise     
 Em
 When you wake up on the sea
 A
Be sure to think of me and you
 C
He'll think about paint and he'll think about glue
 C/BAEmCD
 What a jolly boring thing to do     

CHORUS 2 + 3

OUTRO: Em*

-----------------------------------------

INTRO: The main intro riff:
 EmDCmaj7D
	E------------------------|
	B------------------------|
	G------------------------|
	D----------245-----------|
	A--------02---3-----20---|
	E-0000023-------------32-|


Outro: You'll have to get the strumming and timing yourself:

        E-0--0---0--0---0--0---0--0---0---0---0--0-|
        B-0--0---0--0---0--0---0--0---0---0---0--0-|
        G-9--10--8--10--8--10--8--10--12--10--8--9-|
        D-9--10--8--10--8--10--8--10--12--10--8--9-|
        A-7--8---6--8---6--8---6--8---10--8---6--7-|
        E-0--0---0--0---0--0---0--0---0---0---0--0-|


Thats basically it. Any comments youlookverynice@hotmail.com. HY.


A Am7 C C/B Cmaj7 D Em G
variations - click chord images
Transpose chords:
Tuning:
Cool service:
View: Size:
A  A  A
Rating:
Layout:
  • Currently 2.6/5 Stars.
  • 1
  • 2
  • 3
  • 4
  • 5
 
Accuracy:
  • Currently 3.2/5 Stars.
  • 1
  • 2
  • 3
  • 4
  • 5
 
click stars to rate
Chordie recommends:
Learn to play songs at Jamplay.com with video guitar lessons
Songbook:
Login to add this song to your songbook
Support the artist
Preview/buy this song
MSN Music
Why this non-profit ad?

 
login to add comments/video/corrections