Chordie logo

Hang On To Yourself     David Bowie



Hang On To Yourself
David Bowie



Guitarist: Mick Ronson.

Tuning: Standard Low To High E A D G B e

b: Bend
r: Release Bend
h: Hammer On
s: Silde
~: Vibrato
.: Stacato
*: Repeat


*

     Intro
e|-----------------------------------------------------------------------------|
B|-*---------------------------------------------------------------------------|
G|------7--5-------------------------------7--3--------------------------------|
D|------7--5-------------------------------7--3--------------------------------|
A|-*----5--3-------------------------------5--5--------------------------------|
E|------------2h3-3-3--2h3-3-3--3-2h3-3-3--------2h3-3-3--2h3-3-3--3-2h3-3-3-3-|
    Verse
e|------------------------------------------------------------------------------|
B|------------------------------------------------------------------------------|
G|----------2--x-2--4--x-4----2----------------------------------2--x-2--4--x-4-|
D|--4--x-4--2--x-2--4--x-4--4-2-2h4-4-4-4-4-4-4-4-4-4-4--4--x-4--2--x-2--4--x-4-|
A|--4--x-4--0--x-0--2--x-2--4-0-2---2-2-2-2-2-2-2-2-2-2--4--x-4--0--x-0--2--x-2-|
E|--2--x-2------------------2----------------------------2--x-2-----------------|
                                 Chorus
e|-----------------------------------------------------------------------------|
B|-------------------------------x--x--5--x--x--5--x--x--7--x--x--7--x--x--5---|
G|----2--------------------------x--x--5--x--x--5--x--x--7--x--x--7--x--x--5---|
D|--4-2-4h4-4-4-4-4-4-4-4-4-4-4--x--x--5--x--x--5--x--x--7--x--x--7--x--x--5---|
A|--4-0-2---2-2-2-2-2-2-2-2-2-2--x--x--3--x--x--3--x--x--5--x--x--5--x--x--3---|
E|--2--------------------------------------------------------------------------|

e|-----------------------------------------------------------------------------|
B|-x--x--5--x--7-7--7--x--x--5--x--x--5--x--x--7--x--x--7--x--x--5--x--x--5----|
G|-x--x--5--x--7-7--7--x--x--5--x--x--5--x--x--7--x--x--7--x--x--5--x--x--5----|
D|-x--x--5--x--7-7--7--x--x--5--x--x--5--x--x--7--x--x--7--x--x--5--x--x--5----|
A|-x--x--3--x--5-5--5--x--x--3--x--x--3--x--x--5--x--x--5--x--x--3--x--x--3----|
E|-----------------------------------------------------------------------------|

e|----------------|
B|-------------*--|
G|-2-2-2-2--2-----|
D|-2-2-2-2--2-----|
A|-0-0-0-0--0--*--|
E|----------------|

Backing chords for the solo are played the same way as the chorus, but instead of C and D
play A and D

   Guitar Solo         .                              .     |Change to C and D again
e|-------7b9r7-5~--3s5-3-.-.-----------------7b9r7-5~-3-.-.--------------------|
B|-2-3-5-----------------5-3-----------2-3-5------------5-3--------------------|
G|---------------------------4-4s6-2~-----------------------/5~--/7~--/5~-/7~--|
D|-----------------------------------------------------------------------------|
A|-----------------------------------------------------------------------------|
E|-----------------------------------------------------------------------------|



Everything you need to know for the rest of the song is all there because it pretty much


Important: The song above is NOT stored on the Chordie server. The original song is hosted at www.guitaretab.com. Chordie works as a search engine and provides on-the-fly formatting. Chordie does not index songs against artists/composers will. To remove this song please click here.

This song is displayed as text-only. Transposing and tuning is only available for chordpro-songs.

Rating click stars to rate

Layout
Accuracy

SHARE PAGE  

You need to log in to post comments