Chordie logo

Glass Concrete Stone  David Byrne

] ] ] ] ] ] ] ]
e|---------9-------||--------10-------|
H|-----8-------8---||-----7-----7-----|
G|---7---7---7---7-||---7---7-----9-7-|
D|-9---------------||-7---------------|
A|-----------------||-----------------|
E|-----------------||-----------------|


Chorus and as Solo/Outro:
2x:
] ] ] ] ] ] ] ] ] ] ] ] ] ] ] ]
e|--------12-------|--------10-------|--------10-------|--------10-------|
H|----10------10---|----11------11---|-----7-----7-----|-----7-----7-----|
G|---9---9---9---9-|--12--12--12--12-|---7---7-----9-7-|---7---7-----9-7-|
D|11---------------|12---------------|-7---------------|-7---------------|
A|-----------------|-----------------|-----------------|-----------------|
E|-----------------|-----------------|-----------------|-----------------|



Intro

Verse:
[G]Now
I'm wakin' at the crack of dawn
to send a little money h[D]ome from here
to the [G]moon is risin' like a discotheque
and now my bags are down and p[D]acked for traveling

[G]Lookin' at happiness
keepin' my flavor fresh
nobody knows I guess
How far I'll g[D]o, I know
so I'm [G]leavin' at Six O' Clock
meet in a parkin' lot
Harriet Hendershot
Sunglasses o[D]n, she waits by this

Chorus:
Gl[A]ass and c[Gm]oncrete and st[D]one
It is j[A]ust a h[Gm]ouse, not a h[D]ome

Verse:
[G]Skin
that covers me from head to toe
except a couple tiny h[D]oles and openings
[G]where, the city's blowin' in and out
this is what it's all a[D]bout, delightfully

[G]Everything's possible
when you're an animal
not inconceivable
How things can ch[D]ange, I know
So I'm [G]puttin' on aftershave
nothin' is out of place
gonna be on my way
Try to pre[D]tend, it's not only

Chorus:
Gl[A]ass and c[Gm]oncrete and st[D]one
That it's just a house, not a home

Solo

Chorus:
And itÂ’s glass and concrete and stone
It is just a house, not a home

Chorus:
And my head is fifty feet high
Let my body and soul be my guide

Outro

Important: The song above is NOT stored on the Chordie server. The original song is hosted at www.guitaretab.com. Chordie works as a search engine and provides on-the-fly formatting. Chordie does not index songs against artists/composers will. To remove this song please click here.

A D G Gm
variations - click chord images

Login - add to songbook

Transpose chords

Tuning

Rating click stars to rate

Layout
Accuracy

SHARE PAGE  

You need to log in to post comments