Guitar Tabs, Chords and Lyrics


No One Like You   David Crowder Band



Ok so this is my first tab ever and I'm 99.9 percent sure it's completely accurate so here we go.

Tuning: Standard (Eadgbe)
Palm Mute= *
Hammeron= h
Pull off= p
Bend= ^

Intro:

|-----------------------------|
|-2--2--2-2-------------------|
|---------------4--4-3--3-3h4-|
|-----------4-4---------------|
|-----------------------------|
|-----------------------------| Play this 4 times

Verse 1

|-2--2----6--6----9---9-----7--7-|
|-2--2----6--6----9---9-----7--7-| 
|-2--2----8--8----9---9-----7--7-|
|-4--4----8--8----11--11----9--9-|
|-4--4----6--6----11--11----9--9-|
|-2--2----6--6----9---9-----7--7-| Play this twice.

Interlude:

Play intro three times and then play this the fourth time

|-------------------------|
|-2--2--2-2-----2^2^2^2^2-| 

Important: The song above is NOT stored on the Chordie server. The original song is hosted at www.guitaretab.com. Chordie works as a search engine and provides on-the-fly formatting. Chordie does not index songs against artists'/composers' will. To remove this song please click here.

This song is displayed as text-only. Transposing and tuning is only available for chordpro-songs.

Login - add to songbook

Rating click stars to rate

Layout
Accuracy

SHARE PAGE  




You need to log in to post comments