Guitar Tabs, Chords and Lyrics


You Are My Joy  David Crowder Band

----------------------------------------------------------------------------



----------------------------------------------------------------------------

   [G#m]      [E]    [D#5]       [F#]      [D#m]       [B]    [F#/A#]       [D#dim/A]          [A#]                                         
e|-------0----------2-----2------2----2------2--------1---------------------|
B|-4-----0---4------2-----4------4----2------4--------3---------------------|
G|-4-----1---3------3-----3------4----3------2--------3---------------------|
D|-6-----2---1------4-----1------4----4------1--------3---------------------|
A|-6-----2----------4------------2----1---------------1---------------------|
E|-4-----0----------2-------------------------------------------------------|

here's the solo, which happens during the bridge, or the "la's" if you know what i mean.
repeat each pull-off section 8 times

e|--19p17p14 eight times--18p16p13 eight times------------------------------|
B|---------------------------------------------------------------------*----|
G|--------------------------------------------------------------------------|
D|--------------------------------------------------------------------------|
A|---------------------------------------------------------------------*----|
E|--------------------------------------------------------------------------|


Verse 1:
And he [G#m]set me on fire, and I am burning alive,
With his [E]breath in my lungs, I am coming undone.

Pre-Chorus 1:
[D#5]    And I cannot hold it in,
[G#m]    And remain[F#]  composed.[E]
[D#m]    Love's taken over me,[G#m]    and so I[F#]  propose,
[E]    The letting myself go, I am letting myself [B]go.

Chorus:
[E]  You are my joy, You are my joy,
You are my joy, You are my [B]joy. [F#/A#]

Chorus Ending:
[E]  I need to catch my breath, I need to,
I need to catch my breath, Give me a moment[B], now.

Bridge:
"La's"

chord progression for rhythm is:
B - D#m/A - A# over and over again.

Pre-Chorus 2:
[E]  You are my joy, You are my joy,
You are my joy, You are my [B]joy. [F#m/A#]

Ending:
[E]  I'm laughin' so hard, and I'm laughin' so hard,
And I'm laughin' [B]so hard.

| / slide up
| \ slide down
| h hammer-on
| p pull-off
| ~ vibrato
| + harmonic
| x Mute note
============================================================================

Important: The song above is NOT stored on the Chordie server. The original song is hosted at www.guitaretab.com. Chordie works as a search engine and provides on-the-fly formatting. Chordie does not index songs against artists'/composers' will. To remove this song please click here.

Text color:
Chord color:
Chord grids: 
Font size:    
Page size: 

A# B D#5 D#dim/A D#m E F# F#/A# F#m/A# G#m
variations - click chord images

Login - add to songbook

Transpose chords

Tuning

Rating click stars to rate

Layout
Accuracy

SHARE PAGE  




You need to log in to post comments