Guitar Tabs, Chords and Lyrics


Make A Joyful Noise I Will Not Be Silent  David Crowder Band

INTRO / VERSE (^ = upstrum)

^ ^
Bm7sus A* D* A/C#
e|------xxx------7--x--5-----------------------------------------------------|
B|------xxx------7--x--x-----------------------------------------------------|
G|---------------9--x--7---7---7--/--9----9-9--------------------------------|
D|-----(777)----(7)-x--4---x--(x)----7---------------------------------------|
A|------777h99------x------4/5-5----(0)---5h7--------------------------------|
E|5/7--(777)--------x----------7--/-(9)--------------------------------------|



..joyful noise to the Lord all the...
^ ^
Bm7sus A* D* A/C#
e|------xxx------7--x--5-----------------------------------------------------|
B|------xxx------7--x--x-----------------------------------------------------|
G|---------------9--x--7---7---7--/--9----9-9--------------------------------|
D|-----(777)----(7)-x--4---x--(x)----7---------------------------------------|
A|------777h99------x------4/5-5----(0)---5h7--------------------------------|
E|5/7--(777)--------x----------7--/-(9)--------------------------------------|



Bridge

C2 G/B D Asus7 or C G/B D
e|10-----7/8\7----12----(3)---------(3)----(3)----2--------------------------|
B|8------7--------10-----3-----------3------3-----3--------------------------|
G|-----------------------2-----------0------0-----2--------------------------|
D|-----------------------2-----------2------x--------------------------------|
A|7------5--------9------------------3------2--------------------------------|
E|8------7--------10-----------------------(0)-------------------------------|



VERSE
Bm7sus A* D* A/C# Bm7sus A* D* A/C#
Make a joyful noise to the Lord all the earth


BRIDGE
[C2]The flowers of the [G/B]fields are crying to be [C2]heard
[C2]The trees of the [G/B]forest [D]are singing
[C2]And all of the [G/B]mountains with one [C2]voice
C2 G/B D C2 (G/B, C2, Asus7)
Are joining in the chorus of this world

PRE CHORUS
[C2]"yea[G/B]h"s..[C2]....[G/B].....[D]...[C2]....[G/B].....[C2].......[D]La la la la la


CHORUS
[G]And I will [D/F#]not be silent
[Em7]And I will [C2]not be quiet anymor[G]e


BRIDGE2
[G]Running through the [D/F#]forest dive into the [Em]lake
Bare [C]feet on beaches [G]white
[G]Standing in the [D/F#]canyon
Painted hills [Em]around, the [C]wind against my [G]skin
[G]Every ocean, every sea, [D/F#]every river, every stream
[Em]Every mountain, every tree, [C]every blade of grass will sing...


CHORUS2
Make a [G]joyful [D/F#]noise to the [Em]Lord [C]all the [G]ear[D/F#]th   [Em]   [C]


Verse
Bridge
Verse
Bridge 2x
Pre Chorus
Chorus
Bridge 2
Chorus 2

Important: The song above is NOT stored on the Chordie server. The original song is hosted at www.guitaretab.com. Chordie works as a search engine and provides on-the-fly formatting. Chordie does not index songs against artists'/composers' will. To remove this song please click here.

Text color:
Chord color:
Chord grids: 
Font size:    
Page size: 

C C2 D D/F# Em Em7 G G/B
variations - click chord images

Login - add to songbook

Transpose chords

Tuning

Rating click stars to rate

Layout
Accuracy

SHARE PAGE  




You need to log in to post comments