Guitar Tabs, Chords and Lyrics


I Am The Door   Day Of Fire



-------------------------------------------------------------------------------
		           I Am the Door - Day of Fire
-------------------------------------------------------------------------------
Tabbed by: Chafe
Email: chafed@gmail.com

Tuning: Drop D

Intro / Verse

e|---------------------------------------------------------------------------|
B|---------------------------------------------------------------------------|
G|---------------------------------------------------------------------------|
D|-x-x--9-x-9-9-x-x--9-9-x-9---5--7--9-x-x--9-x-9-9-x-x--9-9-x-9---7--12--9--|
A|-x-x--9-x-9-9-x-x--9-9-x-9---5--7--9-x-x--9-x-9-9-x-x--9-9-x-9---7--12--9--|
D|-x-x--9-x-9-9-x-x--9-9-x-9---5--7--9-x-x--9-x-9-9-x-x--9-9-x-9---7--12--9--|

Pre-Chorus (listen close for the 5-7-9)

e|---------------------------------------------------------------------------|
B|---------------------------------------------------------------------------|
G|---------------------------------------------------------------------------|
D|-x-x--9-x-9-9-x-x--9-9-x-x---------2------------x-x-x-x--------------------|
A|-x-x--9-x-9-9-x-x--9-9-x-x---------2------------x-x-x-x--------------------|
D|-x-x--9-x-9-9-x-x--9-9-x-x--5-7-9--2------------x-x-x-x--------------------|

Chorus (just go with the rhythm of it, I don't feel like typing all of the
        strokes)

   E           G            B            A     this is extra but sounds nice
                                              near the end of the "A" strokes
e|---------------------------------------------------------------------------|
B|---------------------------------------------------------------------------|
G|---------------------------------------------------------------------------|
D|-2-----------5------------9------------7---------7-7-7-9-9-7-7-------------|
A|-2-----------5------------9------------7---------7-7-7-7-7-7-7-------------|
D|-2-----------5------------9------------7---------7-7-7-7-7-7-7-------------|

Lead Chorus Riff (sounds nice)

e|---------------------------------------------------------------------------|
B|---------------------------------------------------------------------------|
G|-9-----------12-----------16-----------14--------14-14-14-16-16-14-14------|
D|---------------------------------------------------------------------------|
A|-7-----------10-----------14-----------12--------12-12-12-12-12-12-12------|
D|---------------------------------------------------------------------------|

Bridge

e|---------------------------------------------------------------------------|
B|---------------------------------------------------------------------------|
G|---------------------------------------------------------------------------|
D|-0-0-0-0-0-0-0-0-0-0-0-0-0-0-0-0--2-2-2-2-2-2-2-2-2-2-2-2-5-5-5-5----------|
A|-0-0-0-0-0-0-0-0-0-0-0-0-0-0-0-0--2-2-2-2-2-2-2-2-2-2-2-2-5-5-5-5----------|
D|-0-0-0-0-0-0-0-0-0-0-0-0-0-0-0-0--2-2-2-2-2-2-2-2-2-2-2-2-5-5-5-5----------|

Sorry, I don't know the lead riff that is played over the bridge, but this is
basically all you need to play the entire song.


| /  slide up
| \  slide down
| h  hammer-on
| p  pull-off
| ~  vibrato
| +  harmonic
| x  Mute note


Important: The song above is NOT stored on the Chordie server. The original song is hosted at www.guitaretab.com. Chordie works as a search engine and provides on-the-fly formatting. Chordie does not index songs against artists/composers will. To remove this song please click here.

This song is displayed as text-only. Transposing and tuning is only available for chordpro-songs.

Login - add to songbook

Rating click stars to rate

Layout
Accuracy

SHARE PAGE  




You need to log in to post comments