Chordie logo

The Sun   Days Of The New



The Sun
by Travis Meeks
===============
Tuning: D# G# C# D# A# D# -Low to High

(Standard flat with G string tuned down D#)


Rhythm Intro & Verse
D#|------------------------------------|
A#|------------------------------------|
D#|--------0-------0-------0---------0-|
C#|------------5-----0---0-----0---0---|
G#|----6h7---7---7---------------------|
D#|--0-----------------5-----6---7-----|
(quick hammer)

Lead Intro (distortion)
D#|------------------------------------|
A#|------------------------------------|
D#|------------------------------------|
C#|--5/7-5b----------------5-5b--------|
G#|---------7--------0-5-7-------7p5-7-|
D#|------------------------------------|

D#|------------|-------------------------| |-----------------------0-|
A#|------------|-------------------------| |-----------------------0-|
D#|------------|-5p3---5p3---5p3---5p3---| |-5/7-5-3b----------------|
C#|------5--7--|-----2-----2-----2-----2-| |----------2h0------------|
G#|--5-7-------|-------------------------| |--------------2h0--------|
D#|------------|-------------------------| |------------------3b-0---|



Chorus ('I am trapped...')
D#|--0-0-0-0-0---0-0-0-0-0---0-0-0-0-0--0---0--0--0--0-|
A#|--0-0-0-0-0---0-0-0-0-0---0-0-0-0-0--0---0--0--0--0-|
D#|--0-0-0-0-0---0-0-0-0-0---0-0-0-0-0--0---0--0--0--0-|
C#|--5/7-7-7-7---5/7-7-7-7---7/9-9-9-9--9-/-5--5--4--2-|
G#|--x-x-x-x-x---x-x-x-x-x---x-x-x-x-x--x-/-x--x--x--x-|
D#|--3/5-5-5-5---3/5-5-5-5---5/7-7-7-7--7-/-3--3--2--0-|

Lead Chorus (distortion)
D#|----|---------------0-|
A#|----|-------------0---|
D#|----|-----------5-----|
C#|----|---------5-------|
G#|----|-----5-7---------|
D#|--0-|-5-7-------------|


('I've learned to hate you')
D#|--0-0-0-0-0---0-0-0-0-0---0-0-0-0-0--0-0-0-0-0-|
A#|--0-0-0-0-0---0-0-0-0-0---0-0-0-0-0--0-0-0-0-0-|
D#|--0-0-0-0-0---0-0-0-0-0---0-0-0-0-0--0-0-0-0-0-|
C#|--5/7-7-7-7---5/7-7-7-7---7/9-9-9-9--7/9-9-9-9-|
G#|--x-x-x-x-x---x-x-x-x-x---x-x-x-x-x--x-x-x-x-x-|
D#|--3/5-5-5-5---3/5-5-5-5---5/7-7-7-7--5/7-7-7-7-|

Lead (distortion)
D#|---------------------------------------------------|
A#|---------------------------------------------------|
D#|---------------------------------------------------|
C#|--5/7-7-7-7---5/7-7-7-7---7/9-9-9-9--9--5--5--4--2-|
G#|--x-x-x-x-x---x-x-x-x-x---x-x-x-x-x--x--x--x--x--x-|
D#|--3/5-5-5-5---3/5-5-5-5---5/7-7-7-7--7--3--3--2--0-|




Outro (D#m7)
D#|----------------|--0------0------|
A#|--0h3--3-3--0h3-|--0h3--3-3--0h3-|
D#|--0----0-0--0---|--0----0-0--0---|
C#|--2------2--2---|--2------2--2---|
G#|--2------2--2---|--2------2--2---|
D#|--0------0--0---|--0------0--0---|

(D#m7, G#7)

D#|--0------0------|--0-0---0-0---|
A#|--0h3--3-3--0h3-|--0h2---2h3---|
D#|--0----0-0--0---|--0-0---0-0---|
C#|--2------2--2---|--2-2---2-2---|
G#|--2------2--2---|--0-0---0-0---|
D#|--0------0--0---|--------------|

Lead Outro (distortion)
D#|-------0--0------0--0-| |-------0-------|
A#|------0---------0-----| |------0--------|
D#|--5h7-------5h7-------| |--5h7----5p3-0-|
C#|----------------------| |---------------|
G#|----------------------| |---------------|


Important: The song above is NOT stored on the Chordie server. The original song is hosted at www.guitaretab.com. Chordie works as a search engine and provides on-the-fly formatting. Chordie does not index songs against artists/composers will. To remove this song please click here.

This song is displayed as text-only. Transposing and tuning is only available for chordpro-songs.

Login - add to songbook

Rating click stars to rate

Layout
Accuracy

SHARE PAGE  



You need to log in to post comments