I Wish Wed All Been Ready

Dc Talk

-----------------------------------------------------------------------------

-----------------------------------------------------------------------------
e|-----2---------------------------------------------------------------------|
B|-----1--------3--2--0--2---------------------------------------------------|
G|-----2--------0--0--0--0---------------------------------------------------|
D|-----0--------2--2--2--2---------------------------------------------------|
A|-----0---------------------------------------------------------------------|
E|-----0---------------------------------------------------------------------|

 D
 Life was filled with guns and war
 D2G
And all of us got trampled on the floor
 D3
I wish we'd all been ready
 D
 Children died the days grew cold
 D2G
piece of bread could buy a bag of gold
 D3
I wish we'd all been ready

Chorus:
 GD
 There's no time to change your mind
 CGD
The Son has come and you've been left behind

Verse2:
 D
 A man and wife asleep in bed
 D2G
She hears a noise and turns her head he's gone
 D3
I wish we'd all been ready
 D
 Two men walking up a hill
 D2G
One disappears and one's left standing still
 D3
I wish we'd all been ready

Chorus:
 GD
 There's no time to change your mind
 CGD
The Son has come and you've been left behind

Bridge:
 GD
 The Father spoke the demons died
 CG
 How could you have been so blind

Chorus:
 GD
 There's no time to change your mind
 CGD
The Son has come and you've been left behind

Chorus:
 GD
 There's no time to change your mind
 CGD
The Son has come and you've been left behind

Outro:
 D3D
I hope we'll all be ready                 
You've been left behind
 D3D
I hope we'll all be ready                
You've been left behind
D3 D(hold chord)
I hope we'll all be ready
You've been left behind


C D D2 D3 G
variations - click chord images
Transpose chords:
Tuning:
Cool service:
View: Size:
A  A  A
Rating:
Layout:
  • Currently 2.5/5 Stars.
  • 1
  • 2
  • 3
  • 4
  • 5
 
Accuracy:
  • Currently 3.8/5 Stars.
  • 1
  • 2
  • 3
  • 4
  • 5
 
click stars to rate
Chordie recommends:
Get acoustic guitar lessons and electric guitar lessons at JamPlay.com
Songbook:
Login to add this song to your songbook
Support the artist
Preview/buy this song
MSN Music
Why this non-profit ad?

 
login to add comments/video/corrections