Guitar Tabs, Chords and Lyrics


Bleed For Me  Dead Kennedys

e-------------------------------------------------------------|


b-------------------------------------------------------------|


g--8-8--9-9-9---9-9-9-8-8-8-----8-8-8-9-9-9-----9-9-9-9-8-8-8-|

d-------------------------------------------------------------|
a-------------------------------------------------------------|
e-------------------------------------------------------------|
e---------------10-12---------------|
b-------11--12-----------10--11-----|
g--9--------------------------------|
d-----------------------------------|
a-----------------------------------|
e-----------------------------------|
e----------------------|
b----------------------|
g----------------------|
d----------------------|
a--------5-7-5---------|
e--0-6-7-------7-6-----|
e-------------------5-6t-----5-6-5-6---------5-6t-----5-6-5-6---------|
b--------------/5-8---------------------/5-8-------------------5-8-5--|
g---------------------------------------------------------------------|
d---------------------------------------------------------------------|
a--------5-7----------------------------------------------------------|
e--0-6-7--------------------------------------------------------------|
[E]  [D]  [E]  [D]  [E]  [D]  [E]                         
Verse: (open) (open)
[Bb]You’ve been hanging [E]‘round, with an[Bb] enemy of the [E]state.

Pre-Chrous:
(open) (open) (open) (open)
Come with [E]me[G]  [A]  [Bb]  to the [E]buildin[G]g.[A]  [Bb]    Tha[E]t no o[G]ne[A]  [Bb]  stops to[E] watc[G]h.[A]  [Bb]


Chorus:

Come on Bleed
e-------18---18-19-18---18-19-18---18-19-18---18-19--|
b-------17---17-18-17---17-18-17---17-18-17---17-18--|
g----------------------------------------------------|
d----------------------------------------------------|
a----------------------------------------------------|
e----------------------------------------------------|


Bleeeeeeeeeeeeeeeeeeeeeeeeeed!
e---17-17-17-17-17-17-17-17-18---|
b---16-16-16-16-16-16-16-16-17---|
g--------------------------------|
d--------------------------------|
a--------------------------------|
e--------------------------------|


Post Chorus:
For [E]me[Eb]eee[D]ee[Db]eee[E]ee[Eb]eee[D]ee[Db]eee[E]ee[Eb]eee[D]ee[Db]   [C]  [B]  [Bb]   [A]

Repeat verse through post chorus and then:

Interlude (I’m not too sure about this part but it sounds ok):
e---------------------------|
b---------------------------|
g---------------------------|
d-----8-----8----10-10-10---|
a---------------------------|
e--0--6--0--6--0--8--8--8---|


Bridge (for the bridge, when you see an E just play an open E note):

|C# |C# |C# |C# |B |B |N.C |N.C |N.C. |N.C |

N.C B
In the name of world peace, in the name of world profits, America pumps

N.C.
up our secret police

B5 C#5 E G# B5 C#5 E B5 N.C.
America wants fuel To get it, it needs puppets.

So w[C#5]hat’s te[E]n mi[G#5]llio[B5]n dea[C#5]d   [E]  [G#5]    [C#5]

N.C.
If it’s keeping out the Russians

[C#]We’re well trained by the CIA  With yankee [B]tax money in Ft. Bragg

T[C#]he Peace Corps builds US labor camps  When th[B]ey think they’re
building schools Ha


N.C. B C# B C#
When cowboy Ronny comes to town.

Forks out his tongue at human rights. [B]  [C#]    [B]  [C#]

[C#]Sit down, enjoy our [B]ethnic meal [C#] Dine on some ch[B]arbroiled [C#]nuns  Try a
[B]medal on  [C#]Smile at the [B]mirror as the [C#]cameras [B]click  And [C#]make big
[B]business [C#]happy.
Just repeat the Pre-Chorus and Chorus and that’s it.

Important: The song above is NOT stored on the Chordie server. The original song is hosted at www.guitaretab.com. Chordie works as a search engine and provides on-the-fly formatting. Chordie does not index songs against artists'/composers' will. To remove this song please click here.

Text color:
Chord color:
Chord grids: 
Font size:    
Page size: 

A B B5 Bb C C# C#5 D Db E Eb G G#5
variations - click chord images

Login - add to songbook

Transpose chords

Tuning

Rating click stars to rate

Layout
Accuracy

SHARE PAGE  




You need to log in to post comments