Guitar Tabs, Chords and Lyrics


Have I The Right   Dead Kennedys



This song is good and it isnt tabbed for the guitar. So I tabbed it. Dont copy this and 
it on another tab website. This is my work!!! Chickenchode. So, go make your own tab. 
and i made this on ultimate guitar, because it's the best.


East Bay Ray- Lead Guitar

6025- Rythm Guitar

Lead Guitar- Intro
e|-----------------------------------------|
B|-10-10-10-9-10-9-10--10-10-10-9-10-9-10--|
G|-----------------------------------------|
D|-----------------------------------------|
A|-----------------------------------------|
E|-----------------------------------------|

Rythm Guitar- Intro
e|----------------------------------|
B|----------------------------------|
G|-7-7-7-7----------7-7-7-7---------|
D|-7-7-7-7-7-7-7-7--7-7-7-7-7-7-7-7-|
A|-5-5-5-5-7-7-7-7--5-5-5-5-7-7-7-7-|
E|---------5-5-5-5----------5-5-5-5-| *Play Them Short

Lead Guitar- Verse
e|---------------------------------------------------|
B|------10-9-10------10-9-10-------10-9-10-9-10-9-10-|
G|-7-------------7-----------7-----------------------|
D|-7-7-----------7-9---------7-7-9-------------------|
A|---7-------------9-----------7-9-------------------|
E|---------------------------------------------------|

Rythm Guitar- Verse
e|---------------------------------------------------------|
B|---------------------------------------------------------|
G|-7-7-7-7---------7-7-7-7---------7-7-7-7-----------------|
D|-7-7-7-7-7-7-7-7-7-7-7-7-9-9-9-9-7-7-7-7-7-7-7-7-7-7-7-7-|
A|-5-5-5-5-7-7-7-7-5-5-5-5-9-9-9-9-5-5-5-5-7-7-7-7-7-7-7-7-|
E|---------5-5-5-5---------7-7-7-7---------5-5-5-5-5-5-5-5-|

Lead Guitar/Rythm Guitar- Chorus
e|-------------------------|
B|-------------------------|
G|-7-7-7-7-----------------|
D|-7-7-7-7-7-7-7-7-9-9-9-9-|
A|-5-5-5-5-7-7-7-7-9-9-9-9-|
E|---------5-5-5-5-7-7-7-7-|

Lead Guitar- Solo
e|--------------------------10-15-15-14-12----------------------------------|
B|-10-10-10-9-10-9-10-10-10---------------15-15-10-10-10-12-12-12-14-15-17--|
G|--------------------------------------------------------------------------|
D|--------------------------------------------------------------------------|
A|--------------------------------------------------------------------------|
E|--------------------------------------------------------------------------|

e|--------------------------------------------10-15-15-14-12----------------|
B|-17-17-15-14-12-10-10-10-10-9-10-9-10-10-10----------------15-15-10-10-10-|
G|--------------------------------------------------------------------------|
D|--------------------------------------------------------------------------|
A|--------------------------------------------------------------------------|
E|--------------------------------------------------------------------------|

e|---------------------------------------|
B|-12-12-12-17~17~15-10-9-10-9-10-9-10-9-|
G|---------------------------------------|
D|---------------------------------------|
A|---------------------------------------|
E|---------------------------------------|

Rythm Guitar plays verse during solo

Don't Copy MY work!!!




Important: The song above is NOT stored on the Chordie server. The original song is hosted at www.guitaretab.com. Chordie works as a search engine and provides on-the-fly formatting. Chordie does not index songs against artists'/composers' will. To remove this song please click here.

This song is displayed as text-only. Transposing and tuning is only available for chordpro-songs.

Login - add to songbook

Rating click stars to rate

Layout
Accuracy

SHARE PAGE  




You need to log in to post comments