Guitar Tabs, Chords and Lyrics


Dog Bite   Dead Kennedys



Dead Kennedys
In God We Trust, Inc.
Dog Bite
(Klaus Flouride)
1:14

Standard Tuning
e B G D A E

"Hold it! It's too slow!"
 
Intro:

e-5-5-5-3-3--||-3-3-3-5-5--||-5-5-5-3-3-3-3-3--3-3-3-5-5-5-5-5-||
B-5-5-5-5-3--||-5-5-5-7-5--||-5-5-5-5-3-3-3-3--5-5-5-7-5-5-5-5-||
G-6-6-6-5-4--||-5-5-5-7-6--||-6-6-6-5-4-4-4-4--5-5-5-7-6-6-6-6-||
D-7-7-7-5-5--||-5-5-5-7-7--||-7-7-7-5-5-5-5-5--5-5-5-7-7-7-7-7-||
A-7-7-7-3-5--||-3-3-3-5-7--||-7-7-7-3-5-5-5-5--3-3-3-5-7-7-7-7-||
E-5-5-5---3--||---------5--||-5-5-5---3-3-3-3----------5-5-5-5-||


Verse: "Dog Bite! On my leg..."

e-5-5-5-5-5-5-5-5-3-3--||-1-1-1-1-1-1-1-1-3-3-||
B-5-5-5-5-5-5-5-5-5-3--||-1-1-1-1-1-1-1-1-5-3-||
G-6-6-6-6-6-6-6-6-5-4--||-2-2-2-2-2-2-2-2-5-4-||
D-7-7-7-7-7-7-7-7-5-5--||-3-3-3-3-3-3-3-3-5-5-||
A-7-7-7-7-7-7-7-7-3-5--||-3-3-3-3-3-3-3-3-3-5-||
E-5-5-5-5-5-5-5-5---3--||-1-1-1-1-1-1-1-1---3-||


Chorus: "Underwater navigation..."        "Ohhhhhhhh-oh-ohhhhhhhhhhhh."     

e-5/1--5/1--5/1--5/1-||--5-5-5-7-8--8--8--8--||---10----10---10---10-||
B-5/1--5/1--5/1--5/1-||--5-5-5-7-8--8--8--8--||---10----10---10---10-||
G-6/2--6/2--6/2--6/2-||--6-6-6-8-9--9--9--9--||---9-----9----9----9--||
D-7/3--7/3--7/3--7/3-||--7-7-7-9-10-10-10-10-||----------------------||
A-7/3--7/3--7/3--7/3-||--7-7-7-9-10-10-10-10-||----------------------||
E-5/1--5/1--5/1--5/1-||--5-5-5-7-8--8--8--8--||--8----8----8----8----||


Bridge:

e-5-5-5-7-8--8--8--8--||---------------10---10--10--10-/--||
B-5-5-5-7-8--8--8--8--||---------------10---10--10--10-/--||
G-6-6-6-8-9--9--9--9--||-9-9-9---------9----9---9---9--/--||
D-7-7-7-9-10-10-10-10-||-7-7-7----------------------------||
A-7-7-7-9-10-10-10-10-||-------10-10----------------------||
E-5-5-5-7-8--8--8--8--||-------8--8--8----8---8-----------||


e-5/1--5/1--5/1--5/1-||
B-5/1--5/1--5/1--5/1-||
G-6/2--6/2--6/2--6/2-||
D-7/3--7/3--7/3--7/3-||
A-7/3--7/3--7/3--7/3-||
E-5/1--5/1--5/1--5/1-||


Outro Verse: "Dog Bite! On my leg..."

e-5-5-5-5-5-5-5-5-3-3--||-1-1-1-1-1-1-1-1-3-3-||
B-5-5-5-5-5-5-5-5-5-3--||-1-1-1-1-1-1-1-1-5-3-||
G-6-6-6-6-6-6-6-6-5-4--||-2-2-2-2-2-2-2-2-5-4-||
D-7-7-7-7-7-7-7-7-5-5--||-3-3-3-3-3-3-3-3-5-5-||
A-7-7-7-7-7-7-7-7-3-5--||-3-3-3-3-3-3-3-3-3-5-||
E-5-5-5-5-5-5-5-5---3--||-1-1-1-1-1-1-1-1---3-||


Outro Fill:

e-1-1-1/-3-x-||
B-1-1-1/-3-x-||
G-2-2-2/-4-x-||
D-3-3-3/-5-x-||
A-3-3-3/-5-x-||
E-1-1-1/-3-x-||


Jeff 
JAM66upyrs@msn.com

| x = dead note
| / = slide



Important: The song above is NOT stored on the Chordie server. The original song is hosted at www.guitaretab.com. Chordie works as a search engine and provides on-the-fly formatting. Chordie does not index songs against artists'/composers' will. To remove this song please click here.

This song is displayed as text-only. Transposing and tuning is only available for chordpro-songs.

Login - add to songbook

Rating click stars to rate

Layout
Accuracy

SHARE PAGE  




You need to log in to post comments