Guitar Tabs, Chords and Lyrics


Get Off The Air   Dead Kennedys



Tabbed by: Stefan
Email: stehphyn@yahoo.com

Tuning: standard (EADGBE)


main riff:
e|------------------------------------------------------------------|
B|------------------------------------------------------------------|
G|----------12--12----------12--12----------------------------------|
D|--12--12--12--12--12--12--12--12--10--10--10--10--10--10--10--10--|
A|--12--12--10--10--12--12--10--10--10--10--10--10--10--10--10--10--|
E|--10--10----------10--10----------8---8---8---8---8---8---8---8---|


pre-chorus (you're a fucking piece of shit now, rodney):
e|----------------------------------------------------------|
B|----------------------------------------------------------|
G|--10--10--10--10------------------------------------------|
D|--10--10--10--10--10--10--10--10--5--5--5--5--7--7--7--7--|
A|--8---8---8---8---10--10--10--10--5--5--5--5--7--7--7--7--|
E|------------------8---8---8---8---3--3--3--3--5--5--5--5--|

e|----------------------------------------------|
B|----------------------------------------------|
G|--10--10--10--10------------------------------|
D|--10--10--10--10--10--10--10--10--5--5--5--5--|
A|--8---8---8---8---10--10--10--10--5--5--5--5--|
E|------------------8---8---8---8---3--3--3--3--|

--------------------------|
--------------------------|
--------------------------|
-9--9--9--9--9--9--9--9---|
-9--9--9--9--9--9--9--9---|
-7--7--7--7--7--7--7--7---|


chorus (get off the air):
e|-------------------------------------------------|
B|-------------------------------------------------|
G|-------------------------------------------------|
D|-5--5--5--5--7--7--7--7--5--5--5--5--9--9--9--9--|
A|-5--5--5--5--7--7--7--7--5--5--5--5--9--9--9--9--|
E|-3--3--3--3--5--5--5--5--3--3--3--3--7--7--7--7--|

e|-------------------------------------------------|
B|-------------------------------------------------|
G|-------------------------------------------------|
D|-5--5--5--5--7--7--7--7--5--5--5--5--9-----9-----|
A|-5--5--5--5--7--7--7--7--5--5--5--5--9-----9-----|


Important: The song above is NOT stored on the Chordie server. The original song is hosted at www.guitaretab.com. Chordie works as a search engine and provides on-the-fly formatting. Chordie does not index songs against artists'/composers' will. To remove this song please click here.

This song is displayed as text-only. Transposing and tuning is only available for chordpro-songs.

Login - add to songbook

Rating click stars to rate

Layout
Accuracy

SHARE PAGE  




You need to log in to post comments