Guitar Tabs, Chords and Lyrics


Moon Over Marin   Dead Kennedys



Song: Moon Over Marin
Guitarist: East Bay Ray
Band: Dead Kennedys   DK
Album: Plastic Surgery Disasters
Track: 14
Tuning: Standard
^: pick hard
*: don't pick
x: palm mute

Intro:
e|-------5~-|
b|-77777-5~-|
g|-77777-6~-|
d|-77777-7~-|
a|-55555-7~-|
e|-------5~-|x2

Intro 2:
e|-----9-----9------|   |--------|
b|---10-10----10----|   |-^-*--*-|
g|--------9~----9-11|   |-9-11-9-|
d|------------------|   |--------|
a|-0~---------------|   |--------|
e|------------------|x4 |--------|Play this the last time

Intro 3:
e|----------|   |----------|   |----------|   |----------------------5~-|
b|----------|   |----------|   |----------|   |----------------------5~-|
g|----------|   |----------|   |----------|   |-11111111-10101010-6~-6~-|
d|-----77---|   |-----55---|   |-----99---|   |-12121212-11111111-7~-7~-|
a|---77--77-|   |---55--55-|   |---99--99-|   |-12121212-11111111-7~----|
e|-55-------|x2 |-33-------|x2 |-77-------|x2 |-10101010--9-9-9-9-5~----|
   xx             xx             xx

Verse:
e|----------|   |----------|   |----------|   |-------------------|
b|----------|   |----------|   |----------|   |-------------------|
g|----------|   |----------|   |----------|   |-11111111-10101010-|
d|-----77---|   |-----55---|   |-----99---|   |-12121212-11111111-|
a|---77--77-|   |---55--55-|   |---99--99-|   |-12121212-11111111-|
e|-55-------|x2 |-33-------|x2 |-77-------|x2 |-10101010--9-9-9-9-|
   xx             xx             xx
play all of this twice then:

Chorus:
e|-------------------------------------------------------|
b|-------------------------------------------------------|
g|-6~-11111111-10101010-13131313131313131313131313131313-|
d|-7~-12121212-11111111-14141414141414141414141414141414-|
a|-7~-12121212-11111111-14141414141414141414141414141414-|
e|-5~-10101010--9-9-9-9-12121212121212121212121212121212-|

Intro 2:
e|-----9-----9------|   |--------|
b|---10-10----10----|   |-^-*--*-|
g|--------9~----9-11|   |-9-11-9-|
d|------------------|   |--------|
a|-0~---------------|   |--------|
e|------------------|x4 |--------|Play this the last time

Verse:
e|----------|   |----------|   |----------|   |-------------------|
b|----------|   |----------|   |----------|   |-------------------|
g|----------|   |----------|   |----------|   |-11111111-10101010-|
d|-----77---|   |-----55---|   |-----99---|   |-12121212-11111111-|
a|---77--77-|   |---55--55-|   |---99--99-|   |-12121212-11111111-|
e|-55-------|x2 |-33-------|x2 |-77-------|x2 |-10101010--9-9-9-9-|
   xx             xx             xx
play all of this twice then:

Chorus:
e|-------------------------------------------------------|
b|-------------------------------------------------------|
g|-6~-11111111-10101010-13131313131313131313131313131313-|
d|-7~-12121212-11111111-14141414141414141414141414141414-|
a|-7~-12121212-11111111-14141414141414141414141414141414-|
e|-5~-10101010--9-9-9-9-12121212121212121212121212121212-|

Intro 2:
e|-----9-----9------|
b|---10-10----10----|
g|--------9~----9-11|
d|------------------|
a|-0~---------------|
e|------------------|x4

Intro:
e|-------5~-|
b|-77777-5~-|
g|-77777-6~-|
d|-77777-7~-|
a|-55555-7~-|
e|-------5~-|x2

Solo
e|-------------|
b|-------------|
g|--2-4-7-6-2--|
d|-2---4-----4-|
a|-------------|
e|-------------|x4 the last two times play each note twice

solo part 2:
e|---9-12-9-------7-12-9------|
b|-10------12-10-8------12-10-|
g|----------------------------|
d|----------------------------|
a|----------------------------|
e|----------------------------|x2

after solo:
e|-------------------------------------------------------------------------|
b|-------------------------------------------------------------------------|
g|-11111111-10101010-6~-11111111-10101010-13131313131313131313131313131313-|
d|-12121212-11111111-7~-12121212-11111111-14141414141414141414141414141414-|
a|-12121212-11111111-7~-12121212-11111111-14141414141414141414141414141414-|
e|-10101010--9-9-9-9-5~-10101010--9-9-9-9-12121212121212121212121212121212-|

Verse:
e|----------|   |----------|   |----------|   |-------------------|
b|----------|   |----------|   |----------|   |-------------------|
g|----------|   |----------|   |----------|   |-11111111-10101010-|
d|-----77---|   |-----55---|   |-----99---|   |-12121212-11111111-|
a|---77--77-|   |---55--55-|   |---99--99-|   |-12121212-11111111-|
e|-55-------|x2 |-33-------|x2 |-77-------|x2 |-10101010--9-9-9-9-|
   xx             xx             xx
play all of this twice then:

Chorus:
e|-------------------------------------------------------|
b|-------------------------------------------------------|
g|-6~-11111111-10101010-13131313131313131313131313131313-|
d|-7~-12121212-11111111-14141414141414141414141414141414-|
a|-7~-12121212-11111111-14141414141414141414141414141414-|
e|-5~-10101010--9-9-9-9-12121212121212121212121212121212-|

Intro 2:
e|-----9-----9------|
b|---10-10----10----|
g|--------9~----9-11|
d|------------------|
a|-0~---------------|
e|------------------|x8

Intro:
e|-------5~-|
b|-77777-5~-|
g|-77777-6~-|
d|-77777-7~-|
a|-55555-7~-|
e|-------5~-|x7 you gradually slow down while playing this then

Intro:
e|----------5~-|
b|-7-7-7----5~-|
g|-7-7-7-6~-6~-|
d|-7-7-7-7~-7~-|
a|-5-5-5-7~----|
e|-------5~----|

if there are any errors in my tab you can email me at PunkRckr390@aim.com


Important: The song above is NOT stored on the Chordie server. The original song is hosted at www.guitaretab.com. Chordie works as a search engine and provides on-the-fly formatting. Chordie does not index songs against artists'/composers' will. To remove this song please click here.

This song is displayed as text-only. Transposing and tuning is only available for chordpro-songs.

Login - add to songbook

Rating click stars to rate

Layout
Accuracy

SHARE PAGE  




You need to log in to post comments