Chordie logo


The Way It Is   Dead Moon



aaawww i remember looking for the tabs for this song for age's (and the song it self) 
after listning thru it, i think ive got it hear it is

INTRO
E-------------------------------|
A-7--5-7--5-7-5-7--5-7--5-7-5-7-|
D-9--7-9--7-9-7-9--7-9--7-9-7-9-|
G-9--7-9--7-9-7-9--7-9--7-9-7-9-|
B-------------------------------|
E-------------------------------|

verse


E-----------5-5-5-5-5-----------3-3-3-3-3-)
A-5-5-5-5-5-7-7-7-7-7-5-5-5-5-5-5-5-5-5-5-)
D-7-7-7-7-7-7-7-7-7-7-7-7-7-7-7-5-5-5-5-5-)repeat
G-7-7-7-7-7-----------7-7-7-7-7-----------)
B-----------------------------------------)
E-----------------------------------------)

then play

E-----------5-5-5-5-5-7-7-7-7-7-3-3-3-3-3-)
A-5-5-5-5-5-7-7-7-7-7-9-9-9-9-9-5-5-5-5-5-)
D-7-7-7-7-7-7-7-7-7-7-9-9-9-9-9-5-5-5-5-5-)
G-7-7-7-7-7-------------------------------)repeat
B-----------------------------------------)
E-----------------------------------------)

Chorus
E--XX-XX--3-3-3-3-3-)             E--XX-XX--5-5-5-5-5-5-5-5-5-5-|
A-5XX5XX5-5-5-5-5-5-)             A-5XX5XX5-7-7-7-7-7-7-7-7-7-7-|
D-7XX7XX7-5-5-5-5-5-)repeat then  D-7XX7XX7-7-7-7-7-7-7-7-7-7-7-|
G-7XX7XX7-----------)             G-7XX7XX7---------------------|
B--XX-XX------------)             B--XX-XX----------------------|
E--XX-XX------------)             E--XX-XX----------------------|

That sounds right to me e-mail me NirvanaRama123@hotmail.co.uk tell me what you think

Lyrics

Maybe we were meant to be like a heartbeat turning black
Wasted like the colors mixed while thieves steal out the black
It's like a broken smile, a step apart that gives you style
It doesn't need explaining you know it's fall when it starts raining
It's just the way it is

Touching through an open flame and sparks begin to fly
Looking for another way but you can't help passing by
It's not your enemy, it's the sense somehow you won't be free
It's only rank and file, trampled love, and walking wild
It's just the way it is

Within the crystal pains that we shattered long ago
Alone with what remains it's hard to let you know
In a no-win fight, I guess two wrongs don't make a right
We're in the dash between the way we are and what we've been


Important: The song above is NOT stored on the Chordie server. The original song is hosted at www.guitaretab.com. Chordie works as a search engine and provides on-the-fly formatting. Chordie does not index songs against artists/composers will. To remove this song please click here.

This song is displayed as text-only. Transposing and tuning is only available for chordpro-songs.

Login - add to songbook

Rating click stars to rate

Layout
Accuracy

SHARE PAGE  




You need to log in to post comments