Guitar Tabs, Chords and Lyrics


Long Forgotten   Dead Poetic



----------------------------------------------------------------------------
			                                  Long Forgotten - Dead Poetic
----------------------------------------------------------------------------
Tabbed by: musician4God15

Tuning: Drop C# a.k.a. Drop Db : Db Ab Db Gb Bb eb

b=bend

eb|---------------------------------------------------------------------|
Bb|---------------------------------------------------------------------|
Gb|---------------------------------------------------------------------|
Db|-2-4-xxxxxxxxxxxx-2-4-xxxxxxxxxxxx-2-4-xxxxxxxxxxxx-2-4-xxxxxxxxxxxx-|
Ab|-2-4-xxxxxxxxxxxx-2-4-xxxxxxxxxxxx-2-4-xxxxxxxxxxxx-2-4-xxxxxxxxxxxx-|
Db|-2-4-xxxxxxxxxxxx-2-4-xxxxxxxxxxxx-2-4-xxxxxxxxxxxx-2-4-xxxxxxxxxxxx-|


eb|-----------------------------------------------------------------------|
Bb|-----------------------------------------------------------------------|
Gb|-----------------------------------------------------------------------|
Db|-2-4-----------------------2-4----------------------4-7-447744---------|
Ab|-2-4-447744----------------2-4-447744---------------4-7-------7b-----4-|
Db|-2-4-------7b---4----------2-4-------7b---4---------4-7----------------|

eb|------------------------|
Bb|------------------------|
Gb|------------------------|
Db|-2-4--------------------|
Ab|-2-4-447744-------------|
Db|-2-4-------7b---4-------|

Verse
eb|------------------|
Bb|------------------|
Gb|------------------|
Db|-2-4--------------| x4
Ab|-2-4--------------|
Db|-2-4--------------|

eb|-----------------------------------------------------------------------|
Bb|-----------------------------------------------------------------------|
Gb|-----------------------------------------------------------------------|
Db|-2-4-----------------------2-4----------------------4-7-447744---------|
Ab|-2-4-447744----------------2-4-447744---------------4-7-------7b-----4-|
Db|-2-4-------7b---4----------2-4-------7b---4---------4-7----------------|

eb|------------------------|
Bb|------------------------|
Gb|------------------------|
Db|-2-4--------------------|
Ab|-2-4-447744-------------|
Db|-2-4-------7b---4-------|

Prechorus
eb|-----------------------------|
Bb|-----------------------------|
Gb|-----------------------------|
Db|-0-------------2-------------|
Ab|-0-------------2-------------|
Db|-0-------------2-------------|

Chorus
eb|-----------------------------------------------|
Bb|--------------------------------------------14-|
Gb|-----------------------------------------------|
Db|-444444474-222222242-777777797-666666666-------|  x2
Ab|-444444444-222222222-777777777-666666666-------|
Db|-444444444-222222222-777777777-666666666-------|

Post Chorus
eb|-------------------------|
Bb|-------------------------|
Gb|-------------------------|
Db|-2-4---------------------|
Ab|-2-4-447744--------------|
Db|-2-4-------7b---4--------|

Verse 2 (same as Verse 1)
PreChorus (same)
Chorus (same)

Bridge

eb|---------------|
Bb|---------------|
Gb|---------------|
Db|---------------| repeat
Ab|---------------|
Db|-44xx44xx44----|

Prechorus

Chorus

End

eb|---
Bb|---
Gb|---
Db|-4-
Ab|-4-slide up


Important: The song above is NOT stored on the Chordie server. The original song is hosted at www.guitaretab.com. Chordie works as a search engine and provides on-the-fly formatting. Chordie does not index songs against artists'/composers' will. To remove this song please click here.

This song is displayed as text-only. Transposing and tuning is only available for chordpro-songs.

Login - add to songbook

Rating click stars to rate

Layout
Accuracy

SHARE PAGE  




You need to log in to post comments