Chordie logo

Tell Myself Goodbye   Dead Poetic



Tabber : zACh

I didn't see any tabs for this song so I decided to make one.
It should be a good starter tab. The majority of it I think is right, but who knows.
I welcome any suggestions. Please rate.

Intro and verse- (these words...)
---------------------------------------------------------------|
---------------------------------------------------------------|
---------------------------------------------------------------|
--10-10-10-10--10-10-10-10--11-11-11-11---6-6-6-6--6-6-6-6-----|
--8--8--8--8----8--8--8--8---9--9--9--9----4-4-4-4--4-4-4-4----|
--8--8--8--8----8--8--8--8---8--8--8--8----4-4-4-4--4-4-4-4----|

(Repeat)

chorus- (can't tell the light from the dark)
---------------------------------------------------|
-----------------------(10s and 11s)---------------|
-10-10-10-10--- 6-6-6-6 ---------------6-6-6-6-----|
-8--8--8--8----4-4-4-4--11-11-11-11--4-4-4-4-------|
-8--8--8--8----4-4-4-4--11-11-11-11--4-4-4-4-------|

(Repeat)

Chorus continued-
--------------------------------------------------|
--------------------------------------------------|
--6-6-6-6------bend-5------6-6-6-6------bend-5----|
--6-6-6-6------------------6-6-6-6----------------|
--4-4-4-4------------------4-4-4-4----------------|
--4-4-4-4------------------4-4-4-4----------------|

(Repeat)

Verse-
--------------------------------------------------------------------|
--------------------------------------------------------------------|
--------------------------------------------------------------------|
--10-10-10-10---10-10-10-10--11-11-11-11---6-6-6-6--6-6-6-6--6-6----|
--8--8--8--8-----8--8--8--8---9--9--9--9----4-4-4-4--4-4-4-4--4-4---|
--8--8--8--8-----8--8--8--8---8--8--8--8----4-4-4-4--4-4-4-4--4-4---|

(Repeat)

chorus- (can't tell the light from the dark)
-------------------------------------------------|
-----------------------(10s and 11s)-------------|
-10-10-10-10---6-6-6-6----------------6-6-6-6----|
-10-10-10-10---6-6-6-6--11-11-11-11--6-6-6-6-----|
-8--8--8--8----4-4-4-4--11-11-11-11--4-4-4-4-----|
-8--8--8--8----4-4-4-4--11-11-11-11--4-4-4-4-----|

(Repeat)

Chorus continued-
--------------------------------------------------|
--------------------------------------------------|
--6-6-6-6------bend-5------6-6-6-6------bend-5----|
--6-6-6-6------------------6-6-6-6----------------|
--4-4-4-4------------------4-4-4-4----------------|
--4-4-4-4------------------4-4-4-4----------------|

(Repeat)

Bridge-
-------------------------------------------------|
-------------------------------------------------|
-------------------------------------------------|
---11-11--10-10--8-8--11-11--10-10--8-8----------|
-------(palm mute all of these notes)------------|
-------------------------------------------------|

(Repeat)

Then-
-----------------------------------------------|
-----------------------(10s and 11s)-----------|
-10-10-10-----6-6-6----------------------------|
-10-10-10-----6-6-6---11-11-11-11-11-11--------|

-8--8--8------4-4-4---11-11-11-11-11-11--------|
-8--8--8------4-4-4---11-11-11-11-11-11--------|

(Repeat)

Outro-
-----------------------------------------------------|
-----------------------------------------------------|
-10-10-10-----6-6-6----------------------------------|
-10-10-10-----6-6-6---11-11-11-11----11-11-11-11-----|
-8--8--8------4-4-4---11-11-11-11----11-11-11-11-----|
-8--8--8------4-4-4---11-11-11-11----11-11-11-11-----|



Important: The song above is NOT stored on the Chordie server. The original song is hosted at www.guitaretab.com. Chordie works as a search engine and provides on-the-fly formatting. Chordie does not index songs against artists/composers will. To remove this song please click here.

This song is displayed as text-only. Transposing and tuning is only available for chordpro-songs.

Login - add to songbook

Rating click stars to rate

Layout
Accuracy

SHARE PAGE  

You need to log in to post comments