Guitar Tabs, Chords and Lyrics


Sinless City   Dead Poetic



drop d

verse and intro

------------------------|
-2----------------------|
-3--------3----1----5---|
-3--------4----3----6---| repeat
-1--------4----3----6---|
-3--------4----3----6---|


pre-chorus

----------------------------------|
----------------------------------|
----------------------------------|
----------------------------------|
-1111111111115555-----------------|
-----------------7777777777777777-|


VERSE

PRECHORUS (this pre chorus is just the verse/intro part)

chorus

----------------------------------|
----------------------------------|
----------------------------------| x2 then..
----------------------------------|
-1111111111115555-----------------|
-----------------7777777777777777-|

----------------------------------|
----------------------------------|
-3333333333337777-----------------|
-33333333333377777777777777777777-
-11111111111133337777777777777777-   (777 can be played 797)
-----------------7777777777777777-

bridge
---------------------------------|
---------------------------------|
---------------------------------|
---------------------------------|
-1------4-----------1------------|
-----------------7-----3---------|

when the bridge builds up...

---------------------------------|
---------------------------------|
-3------6-----------3------------|
-3------6--------7--3--3---------| repeat..
-1------4--------7--1--3---------|
-----------------7-----3---------|

-------------------------------|
-------------------------------|
-------------------------------|
-------------------------------|
-444444444444444444444444------| goes into chorus


Important: The song above is NOT stored on the Chordie server. The original song is hosted at www.guitaretab.com. Chordie works as a search engine and provides on-the-fly formatting. Chordie does not index songs against artists'/composers' will. To remove this song please click here.

This song is displayed as text-only. Transposing and tuning is only available for chordpro-songs.

Login - add to songbook

Rating click stars to rate

Layout
Accuracy

SHARE PAGE  




You need to log in to post comments