Chordie logo


Never Let You Go   Dean Lickyer



-------------------------------------------------------------------------------
			    Never Let You Go - Dean Lickyer
-------------------------------------------------------------------------------
Tabbed by: [:Harry:]
Email:Harry-Dippo@hotmail.co.uk

Tuning: Standard

Awesome band
Dean Lickyer: http://profile.myspace.com/index.cfm?fuseaction=user.viewprofile&friendID=24474840
 or  www.deanlickyer.com

First Tab so go easy.
Also my fonts are messed up so everything isnt in proportion so Im hoping this will come
ok.
Peace Out

e|----------------------------------------------------||
B|---14-13--------------------------------------------||
G|---------15--14--13---------------------------------||   x8
D|-13-13-13--13--13--13--16b--13------13~-------------||
A|--------------------------------16------------------||
E|----------------------------------------------------||

e|----------------------------------||       |--------------------------|
B|----------------------------------||       |--------------------------|
G|--8---6/6-------------------------||       |-----------666666---9-8---|
D|--8---6/8---/7-7--7-7---6--4------||  x4   |--444444---666666---9-8---|
A|--6---4/8---/7-7--7-7---6--4------||       |--444444---444444---7-6---|
E|------------/5-5--5-5---4--2------||       |--222222------------------|

 You can just play 5 > 4 > 2 on the E string with some bends but I find the chords better.



Important: The song above is NOT stored on the Chordie server. The original song is hosted at www.guitaretab.com. Chordie works as a search engine and provides on-the-fly formatting. Chordie does not index songs against artists/composers will. To remove this song please click here.

This song is displayed as text-only. Transposing and tuning is only available for chordpro-songs.

Login - add to songbook

Rating click stars to rate

Layout
Accuracy

SHARE PAGE  




You need to log in to post comments