Photobooth Acoustic

Death Cab For Cutie

e---------x----------x---------x---------|

B---------x----------x---------x---------|
G---------x----------x---------x---------|
D---------x----------x---------x---------|
A---------x----------x---5--5--x---3--3--|
E---0--0--x----3--3--x---------x---------|
e----------------------------------------------------------|
B------------0------------0-------------3---------1--0-----|
G------------------------------------2---------------------|
D---------2------------0-------0--0------------2-----------|
A-------------------------------------------3--------------|
E---0--0---------3--3--------------------------------------|

 GEmDCGEmDC
 GEm
 I remember when the days were long
 DC
and the nights when the living room was on the lawn.
 GEm
 Constant quarreling the childish fits
 DC
and our clothes in a pile on the ottoman.
 GEm
 All the slander and double speak
 DC
Were only foolish attempts to show you did not mean,
 GEm
 Anything but the blatant proof
 DC
Was your lips touching mine in the photobooth.

Chorus 1

 AmCEmDC
 And as the summers ending the cold air rush your hard heart away.
 AmC
 You were so condescending,
(1st Chorus riff)
And this is all that's left
(1st Chorus riff)
Scraping paper to document.
e---------x----------|
B---------x----------|
G---------x----------|
D---------x----------|
A---------x----------|
E---0--0--x----3--3--|         D

I've packed a change of clothes and it's time to move on.

 GEmDCGEmDC
 GEm
 Cup your mouth to compress the sound,
 DC
Skinny dipping with the kids from a nearby town.
 GEm
 And everything that I said was true
 DC
As the flashes blinded us in the photobooth.
 GEm
 Well I lost track when those words were said,
 DC
You took the wheel and you steered us into my bed,
 GEm
 And soon we woke and I walked you home
 DC
And it was pretty clear that is was hardly love.

Chorus 2

 AmCEmDC
 And as the summers ending the cold air rush your hard heart away.
 AmC
 You were so condescending,
(1st Chorus riff)
And this is all that's left
(1st Chorus riff)
Scraping paper to document.
e---------x----------|
B---------x----------|
G---------x----------|
D---------x----------|
A---------x----------|
E---0--0--x----3--3--|         D

I've packed a change of clothes and it's time to move on.

 GEmDCGEmDC
 AmCEmDC
 And as the summers ending the cold air rush your hard heart away.
 AmCEmDC
 You were so condescending as the alcohol drained the days.
 AmCEmDC
 And as the summers ending the cold air rush your hard heart away.
 AmC
 You were so condescending,
(Final Chorus riff)
And this is all that's left,
(Final Chorus riff)
The empty bottles spent cigarettes so pack a change of clothes
(Final Chorus riff) Em
Cause its time to move on.

first two chorus riff
e---------x----------x---------x---------|
B---------x----------x---------x---------|
G---------x----------x---------x---------|
D---------x----------x---------x---------|
A---------x----------x---5--5--x---3--3--|
E---0--0--x----3--3--x---------x---------|


The Final Chorus
e----------------------------------------------------------|
B------------0------------0-------------3---------1--0-----|
G------------------------------------2---------------------|
D---------2------------0-------0--0------------2-----------|
A-------------------------------------------3--------------|
E---0--0---------3--3---------------------------


Am C D Em G
variations - click chord images
Transpose chords:
Tuning:
Cool service:
View: Size:
A  A  A
Rating:
Layout:
  • Currently 0/5 Stars.
  • 1
  • 2
  • 3
  • 4
  • 5
 
Accuracy:
  • Currently 3/5 Stars.
  • 1
  • 2
  • 3
  • 4
  • 5
 
click stars to rate
Chordie recommends:
Learn to play guitar with video-based, online guitar lessons at JamPlay.com
Songbook:
Login to add this song to your songbook
Support the artist
Preview/buy this song
MSN Music
Why this non-profit ad?

 
login to add comments/video/corrections