Guitar Tabs, Chords and Lyrics


Tain  Decemberists

e|--------------------------------|


B|--------------------------------|


G|--------------------------------|

D|--------------------------------| x4
A|------2-1h2p1----------2-5-6-7--|
E|--0-3----------3-0--3-----------|
e|------------------------------------|
B|------------------------------------|
G|------------------------------------|
D|-----------------------------2-0-2--|
A|-------2-1h2p1---------0-2----------|
E|--0-3-----------3p0--3-----0--------|
e|--------------------------------|
B|--------------------------------|
G|--------------------------------|
D|--------------------------------| x4
A|------2-1h2p1----------2-5-6-7--|
E|--0-3----------3-0--3-----------|
e|------------------------------------|
B|------------------------------------|
G|------------------------------------|
D|-----------------------------2-0-2--|
A|-------2-1h2p1---------0-2----------|
E|--0-3-----------3p0--3-----0--------|
[E5]king of the insects and the m-5
over [C5]Charlemagne in a [D5]motorcade [E5]too.
D5 G5 3454xx E5
and baby needs a new prize

[D5]baby needs a [G5]new and shiny [E5]prize.

in th[E5]is place[E5/C] called heavenly
[E5]you were [C5]born here.
this[E5] place [E5/C]called heavenly
[E5]you were [C5]born here.
you were [D5]born here.
and [E5]now all the marchers descend from high
I will [C5]dedicate all of [D5]my awakenings to [E5]this.
and [E5]damn all the angles that oppress my sight
I will [C5]bleed your heart through a [D5]samovar [E5]soon.
[D5]baby needs a [G5]new [E5]prize
[D5]baby needs a [G5]new and shiny [E5]prize.
in [E5]this pl[E5/C]ace called heavenly
[E5]you were [C5]born here.
this[E5] place [E5/C]called heavenly
[E5]you were [C5]born here.
you were [D5]born here.
you were [C5]born here.  [Em]

Important: The song above is NOT stored on the Chordie server. The original song is hosted at www.guitaretab.com. Chordie works as a search engine and provides on-the-fly formatting. Chordie does not index songs against artists'/composers' will. To remove this song please click here.

Text color:
Chord color:
Chord grids: 
Font size:    
Page size: 

C5 D5 E5 E5/C Em G5
variations - click chord images

Login - add to songbook

Transpose chords

Tuning

Rating click stars to rate

Layout
Accuracy

SHARE PAGE  




You need to log in to post comments