Guitar Tabs, Chords and Lyrics


Bagmans Gambit  Decemberists

e|--0--0-0--0-0--------------|


B|--5--3-3--0-0--0-0--0-0-0--|


G|--4--0-0--0-0--0-0--4-4-0--|

D|--2--2-2--2-2--2-2--2-2-2--|
A|--3--3-3--3-3--3-3--3-3-3--|
E|---------------------------|
e|-0---0-0---0-0---0-0-2-2-0----|
B|-1---3-3---0-0---1-1-1-1-1----|
G|-0---0-0---0-0---0-0-0-0-0----|
D|-2---2-2---2-2---2-2-2-2-2----|
A-------------------------------|
E|------------------------------|
e--3---3-3---3-3---3-3-3-3-3----|
B--5---3-3---0-0---5-5-7-7-5----|
G--5---5-5---5-5---5-5-5-5-5----|
D-------------------------------|
A-------------------------------|
E-------------------------------|
e|--------------------------|
B|--1--0-0--3-3--0-0--1-1-0-|
G|--2--2-2--2-2--2-2--2-2-2-|
D|--2--2-2--2-2--2-2--2-2-2-|
A|--------------------------|
E|--------------------------|
[G]And from my ten floor tenement
Where once our bodies [Am]lay
How I longed to hear you [C]say
[Cm]"No they'll never catch me [G]now
[Cm]No they'll never catch me
[Am]No they cannot catch me [F]now
We [E]will escape some[F]how
[Fm]Somehow, oh"
I I

I
It was late one night
I
I was awoken by the telephone
I I
I heard a strangled cry on the end of the line
II
Purloined in Petrograd
II I
They were suspicious of where your loyalties lay
II
So I paid off a bureaucrat
II I I
To convince your captors there to secret you away

[G]And at the gate of the embassy
Our hands met through the [Am]bars
As your whisper stilled my [C]heart
[Cm]"No they'll never catch me [G]now
[Cm]No they'll never catch me
[Am]No they cannot catch me [F]now
We [E]will escape some[F]how
[Fm]Somehow, oh"

(Interlude:)
[C]  [B]  [C]  [B]  [G]                             
[G]And I dreamt one night
You were there in [F#]form
Hands [G]held high
In uni[F#]form
[G]Oh
[F#]Oh

I I

I
It was ten years on
I
When you resurfaced in a motorcar
I C
And with the wave of an arm you were there and gone

Important: The song above is NOT stored on the Chordie server. The original song is hosted at www.guitaretab.com. Chordie works as a search engine and provides on-the-fly formatting. Chordie does not index songs against artists'/composers' will. To remove this song please click here.

Text color:
Chord color:
Chord grids: 
Font size:    
Page size: 

Am B C Cm E F F# Fm G
variations - click chord images

Login - add to songbook

Transpose chords

Tuning

Rating click stars to rate

Layout
Accuracy

SHARE PAGE  




You need to log in to post comments