Chordie logo


Youll Not Feel The Drowning   Decemberists



Artist: The Decemberists
-Album: The Crane Wife
--Song: You'll Not Feel The Drowning (part 4)
---Tab: #12

Transcribed by Exo M7.

For questions/comments/tab requests, the email is jd0922@yahoo.com.

I believe this is 100% accurate and complete for this song.

~~~~~~

Acoustic guitar in standard tuning.

~~~~~~

Verse 1

I will dress your eyelids
1st:--------------------------------------------------|
2nd:-1-----1-----1-----1-----1-----1-----1-----1------|
3rd:---2-----2-----2-----2-----0-----0-----0-----0----|
4th:--------------------------------------------------|
5th:-----0-----0-----0-----0-----3-----3-----3-----3--|
6th:--------------------------------------------------|

With dimes upon your eyes
1st:--------------------------------------------------|
2nd:-1-----1-----1-----1-----1-----1-----1-----1------|
3rd:---2-----2-----2-----2-----0-----0-----0-----0----|
4th:--------------------------------------------------|
5th:-----0-----0-----0-----0-----3-----3-----3-----3--|
6th:--------------------------------------------------|

Laying close to water
1st:--------------------------------------------------|
2nd:-1-----1-----1-----1-----1-----1-----1-----1------|
3rd:---2-----2-----2-----2-----0-----0-----0-----0----|
4th:--------------------------------------------------|
5th:-----0-----0-----0-----0-----3-----3-----3-----3--|
6th:--------------------------------------------------|

Green your grave will rise
1st:--------------------------------------------------|
2nd:-1-----1-----1-----1-----1-----1-----1-----1------|
3rd:---2-----2-----2-----2-----0-----0-----0-----0----|
4th:--------------------------------------------------|
5th:-----0-----0-----0-----0-----3-----3-----3-----3--|
6th:--------------------------------------------------|

Chorus

Go to sleep now, little ugly
1st:--------------------------------------------------|
2nd:-0-----0-----0-----0-----0-----0-----0-----0------|
3rd:---0-----0-----0-----0-----0-----0-----0-----0----|
4th:--------------------------------------------------|
5th:--------------------------------------------------|
6th:-----3-----3-----3-----3-----3-----3-----3-----3--|

Go to sleep now, little fool
1st:--------------------------------------------------|
2nd:-1-----1-----1-----1-----1-----1-----1-----1------|
3rd:---2-----2-----2-----2-----2-----2-----2-----2----|
4th:--------------------------------------------------|
5th:-----0-----0-----0-----0-----0-----0-----0-----0--|
6th:--------------------------------------------------|

Forty-winking in the belfry
1st:--------------------------------------------------|
2nd:-0-----0-----0-----0-----0-----0-----0-----0------|
3rd:---0-----0-----0-----0-----0-----0-----0-----0----|
4th:--------------------------------------------------|
5th:--------------------------------------------------|
6th:-----3-----3-----3-----3-----3-----3-----3-----3--|

You'll not feel the drowning
1st:--------------------------------------------------|
2nd:-1-----1-----1-----1-----0-----0-----0-----0------|
3rd:---2-----2-----2-----2-----0-----0-----0-----0----|
4th:--------------------------------------------------|
5th:-----3-----3-----3-----3--------------------------|
6th:-----------------------------3-----3-----3-----3--|

You'll not feel the drowning
1st:--------------------------------------------------|
2nd:-1-----1-----1-----1-----0-----0-----0-----0------|
3rd:---2-----2-----2-----2-----0-----0-----0-----0----|
4th:--------------------------------------------------|
5th:-----3-----3-----3-----3--------------------------|
6th:-----------------------------3-----3-----3-----3--|

1st:----------------0---------------------------------|
2nd:----------------1--------1-----1-----0-----0------|
3rd:--------1-----0-2----------2-----2-----2-----2----|
4th:----------0-3---2---------------------------------|
5th:------3---------0------------0-----0-----0-----0--|
6th:----4---------------------------------------------|

Verse 2

Chorus

Verse 3 (instrumental)

Chorus



Important: The song above is NOT stored on the Chordie server. The original song is hosted at www.guitaretab.com. Chordie works as a search engine and provides on-the-fly formatting. Chordie does not index songs against artists/composers will. To remove this song please click here.

This song is displayed as text-only. Transposing and tuning is only available for chordpro-songs.

Login - add to songbook

Rating click stars to rate

Layout
Accuracy

SHARE PAGE  




You need to log in to post comments