Guitar Tabs, Chords and Lyrics


The Island Youll Not Feel The Drowning  Decemberists

--------------|


-1--1--1--1---|


--2--2--2--2--|

--------------|
---0--0--0--0-|
--------------|
--------------|
-1--1--1--1---|
--2--2--2--2--|
--------------|
---0--0--0--0-|
--------------|
---------------|-----------------|
-0--0--0--0----|--1--1--1--1-----|
--0--0--0--0---|---2--2--2--2----|
---------------|-----------------|
---------------|----0--0--0--0---|
---0--0--0--0--|-----------------|
---------------------|-------------------------------------|
-0--0--0--0----------|--1--1--1--1-------------------------|
--0--0--0--0---------|---2--2--2--2--0--0--0--0------------|
---------------------|-------------------------------------|
---------------------|----3--3--3--3--2--2--2--2-----------|
---0--0--0--0--------|-----------------3--3--3--3----------|
                [Am]                                                                                
-----------------0---|
-----------------0---|
-----------------1---|
-----------------2---|
-3----------0-2--2---|
-4--0-2-3-4------0---|

END CHORD

end with this and let it ring....

-0-
[-1-]-0-
[-2-]-0-
[-3-]                                     

[Am]i will dress your eyelids with dimes upon your eyes
[Am]lay you close to water green your grave will rise
[Em]go to sleep now, little ugly
[Am]go to sleep now little fool
[Em]forty winking in the beelfry
[C]you'll not feel the [G]drowning
[C]you'll not feel the [G]drowning

Important: The song above is NOT stored on the Chordie server. The original song is hosted at www.guitaretab.com. Chordie works as a search engine and provides on-the-fly formatting. Chordie does not index songs against artists'/composers' will. To remove this song please click here.

Text color:
Chord color:
Chord grids: 
Font size:    
Page size: 

Am C Em G
variations - click chord images

Login - add to songbook

Transpose chords

Tuning

Rating click stars to rate

Layout
Accuracy

SHARE PAGE  




You need to log in to post comments