Chordie logo


Rocket   Def Leppard





-------------------------------------------------------------------------------
			     Rocket-Def Leppard from hysteria
-------------------------------------------------------------------------------
Tabbed by:chris
Email:shepherdchrisdhotmial.com
here is the intro to rocket scine i have nothing to do if you have any question email me 
it or if you want any other songs retaded to def leppard ROCKET YEAH!

Tuning:standerd
Moderately = 116
guitar 1 (dist.)
e|-----------------------------------------------------------------------------|
B|-----------------------------------------------------------------------------|
G|-----------------------------------------------------------------------------|
D|------9-----------------------------------------------------(9)-------(9)----|
A|------7-----------------------------------------------------(7)--------------|
E|-----------------------------------------------------------------------------|
        |w/bar steady ascent---------------------------------------------------|


guitar 1
e|------------------------------------------0------------|----------------------|
B|-------0-----------0-------------0-----------0---------|----------------------|
G|----------3------------3------------3-----------3------|--------2x------------|
D|--------------4------------4-----------4-----------4---|----------------------|
A|-------------------------------------------------------|----------------------|
E|-------------------------------------------------------|----------------------|
             PM             PM            PM             PM


e|------------------------|
B|------------------------|
G|------------------------|
D|------------------------|
A|------------------------|
E|--0----------------(0)--|                 w/bar up


guitar 2 (slight dist.)
e|--0---|---0-------------------------------0---|---0--------------------0------|
B|--0---|---0-------------------------------0---|---0--------------------0------|
G|--4---|---4---------------------------x---3---|---3--------------------4------|
D|--2---|---2---------------------------x---4---|---4--------------------2------|
A|----------------------------------------------|-------------------------------|
E|----------------------------------------------|-------------------------------|


                    REST coming soon!

============================================================================


| /  slide up
| \  slide down
| h  hammer-on
| p  pull-off
| ~  vibrato
| +  harmonic
| x  Mute note


Important: The song above is NOT stored on the Chordie server. The original song is hosted at www.guitaretab.com. Chordie works as a search engine and provides on-the-fly formatting. Chordie does not index songs against artists/composers will. To remove this song please click here.

This song is displayed as text-only. Transposing and tuning is only available for chordpro-songs.

Login - add to songbook

Rating click stars to rate

Layout
Accuracy

SHARE PAGE  




You need to log in to post comments