Hysteria

Def Leppard

-------------------------------------------------------------------|

-------------------------------------------------------------------|
----------0-------0--------0--------------0---------------0--------|
-----4-------4-------4-------4---------4-----4---------4-----4-----|
--5----5-------5--------5-------5----5---------5-----5----------5--|
-----------------------------------3--------------3----------------|
--------------------------------------------------------------------|
--------------------------------------------------------------------|
---------0-----------------0-----------------0--------0------0------|
-----4-------4----------4-----4--------4--------4-------4-------4---|
--2-------------2----5-----------5--5-----5--------5------5-------5-|
--0------------------3----------------------------------------------|

 DG
Out of touch, out of reach yeah     
 EmGD
You could try          to get closer to me        
I'm in luck, I'm in deep, yeah
Hypnotized, I'm shakin' to my knees

 DDsusC
                    I gotta know tonight
 DDsusC
                    If you're alone tonight
 DDsusC
                    Can't stop this feeling
 CBmD
                Can't stop this fire

 EmC
Oh, I get hysterical, hysteria    
 GD
Oh can you feel it, do you believe it?   
 EmC
It's such a magical mysteria    
 GD
When you get that feelin', better start believin'          
 EmCD
'Cos it's a miracle, oh say you will, ooh babe          
Hysteria when you're near

 GD
Out of me, into you yeah
You could hide it's just a one way street
Oh, I believe I'm in you, yeah
Open wide, that's right, dream me off my feet
Oh, believe in me

(Repeat Bridge)

(Repeat Chorus)

no dejemos q el hard rock muera en los ochentas, hagamoslo volver

any commments to ele_gary2002@yahoo.com.ar


Bm C D Dsus Em G
variations - click chord images
Transpose chords:
Tuning:
Cool service:
View: Size:
A  A  A
Rating:
Layout:
  • Currently 3/5 Stars.
  • 1
  • 2
  • 3
  • 4
  • 5
 
Accuracy:
  • Currently 3.1/5 Stars.
  • 1
  • 2
  • 3
  • 4
  • 5
 
click stars to rate
Chordie recommends:
Get acoustic guitar lessons and electric guitar lessons at JamPlay.com
Songbook:
Login to add this song to your songbook
Support the artist
Preview/buy this song
MSN Music
Why this non-profit ad?

 
login to add comments/video/corrections