eToCache5 = ""; ?> Pour Some Sugar On Me by Def Leppard - guitar chords, guitar tabs and lyrics - chordie

Pour Some Sugar On Me

Def Leppard


In the beginning of the song its starts with some vocals then the guitar comes in.
-------------------------------------------------------------------| -------------------------------------------------------------------| -------------------------------------------------------------------| -10-8-8-10-8-8-10---10-8-8-10-8-8-7---10-8-8-10-8-8-10---10-8-8-10-| -------------------------------------------------------------------| -------------------------------------------------------------------|
Then some more vocals
---------------| ---------------| ---------------| -6-6--4-6-4-6--| x8 -4-4--2-4-2-4--| ---------------|
-------------------------------------| -------------------------------------| ---6-4-4----6-4-4----4-2-2----2-4-4--| -4-6-4-4--4-6-4-4--2-4-2-2--2-2-4-4--| -4--------4--------2--------2--------| -------------------------------------|
Then you come to the chours of the song
-----------------------| -----------------------| -------2-2--4-4--4-4---| x3 --2-2--2-2--4-4--4-4---| --2-2------------------| -----------------------|
Then you go back to the begginging of the song
-------------------------------------------------------------------| -------------------------------------------------------------------| -------------------------------------------------------------------| -10-8-8-10-8-8-10---10-8-8-10-8-8-7---10-8-8-10-8-8-10---10-8-8-10-| -------------------------------------------------------------------| -------------------------------------------------------------------|
Then ths same thing as last time
---------------| ---------------| ---------------| -6-6--4-6-4-6--| x8 -4-4--2-4-2-4--| ---------------|
-------------------------------------| -------------------------------------| ---6-4-4----6-4-4----4-2-2----2-4-4--| -4-6-4-4--4-6-4-4--2-4-2-2--2-2-4-4--| -4--------4--------2--------2--------| -------------------------------------|
Then you come to the chours of the song
-----------------------| -----------------------|
-------2-2--4-4--4-4---| x3 --2-2--2-2--4-4--4-4---| --2-2------------------| -----------------------|
Then comes the solo (Hint strum very lightly in the begginning and then loud at the end) ----------------------------------------------------------| ----------------------------------------------------------| -7-7-6-6-7-7-6-6-7-7-6-6-7-7-6-6-7-7-6-6-7-7-6-6-7-7-6-6--| ----------------------------------------------------------| ----------------------------------------------------------| ----------------------------------------------------------|
-------------------------------| -------------------------------| -------------------------------| -2-2----2-2--2-----------------| -2-2----2-2----2-5-6-----------| -------------------------------|
----------------------------------------------------------| ----------------------------------------------------------| -7-7-6-6-7-7-6-6-7-7-6-6-7-7-6-6-7-7-6-6-7-7-6-6-7-7-6-6--| ----------------------------------------------------------| ----------------------------------------------------------| ----------------------------------------------------------|
-------------------------------| -------------------------------| -------------------------------| -2-2----2-2--2-----------------| -2-2----2-2----2-5-6-----------| -------------------------------| Then some more chours
-------------------------------| -------------------------------| -------------------------------| -2-2----2-2--2-----------------| -2-2----2-2----2-5-6-----------| -------------------------------|
-------------------------------------| -------------------------------------| ---6-4-4----6-4-4----4-2-2----2-4-4--| -4-6-4-4--4-6-4-4--2-4-2-2--2-2-4-4--| -4--------4--------2--------2--------| -------------------------------------|
-----------------------| -----------------------| -------2-2--4-4--4-4---| x 7 --2-2--2-2--4-4--4-4---| --2-2------------------| -----------------------| Then the ending
----------------| ----------------| -------2-2--4-4-| --2-2--2-2--4-4-| --2-2-----------| ----------------|



















variations - click chord images
Transpose chords:
Tuning:
Cool service:
View: Size:
A  A  A
Rating:
Layout:
  • Currently 0/5 Stars.
  • 1
  • 2
  • 3
  • 4
  • 5
 
Accuracy:
  • Currently 3.2/5 Stars.
  • 1
  • 2
  • 3
  • 4
  • 5
 
click stars to rate
Chordie recommends:
Learn to play this song & others via video guitar lessons at JamPlay.com
Songbook:
Login to add this song to your songbook
Support the artist
Preview/buy this song
MSN Music
Why this non-profit ad?

 
login to add comments/video/corrections