Chordie logo

Two Steps Behind   Def Leppard



-------------------------------------------------------------------------------
			     Two Steps Behind - Def Leppard
-------------------------------------------------------------------------------
Tabbed by: Jennifer 
Email: jenn18115@yahoo.com

Two Steps Behind Solo
I've seen a lot of people make an attempt at this solo but they all seem to be off badly
or just slightly. This is 100% the way to play it and the most simple. Email me if you
need to! Compliments or suggestions are welcome! :)

Tuning: Standard

e|--------------------------------------10/12-12-12-12\10-10-10-9--9--9----|
B|-2/5-55-555—5\3-33-33-----------------12/14-14-14-14\12-12-12-10-10-10---|
G|---------------------2h4-44-4-2-4—4/6------------------------------------|
D|-------------------------------------------------------------------------|
A|-------------------------------------------------------------------------|
E|-------------------------------------------------------------------------|

e|-9--9---9h10-10-10-10--7-7-7-7--5-5--------------------------------------|
B|-10-10--1010-10-10-10--8-8-8-8--7-7----17--17--17--17-17-17-17-17--------|
G|---------------------------------------16b-16b-16b-14-14-14-14-14--------|
D|-------------------------------------------------------------------------|
A|-------------------------------------------------------------------------|
E|-------------------------------------------------------------------------|

e|-----------------------------------------------------5---------5-7-5-7/9-|
B|-------------3/5-5-5-5\3-3-3-3-3-3-33--3/5-5-5-7-5-7---5-7-5-7-----------|
G|-------------4/6-6-6-6\4-4-4-2-2-2-22------------------------------------|
D|-------------------------------------------------------------------------|
A|---------2-0-------------------------------------------------------------|
E|-0-0-2/4-----------------------------------------------------------------|




Important: The song above is NOT stored on the Chordie server. The original song is hosted at www.guitaretab.com. Chordie works as a search engine and provides on-the-fly formatting. Chordie does not index songs against artists/composers will. To remove this song please click here.

This song is displayed as text-only. Transposing and tuning is only available for chordpro-songs.

Login - add to songbook

Rating click stars to rate

Layout
Accuracy

SHARE PAGE  

You need to log in to post comments