Chordie logo


Answer To The Master   Def Leppard



| /  slide up
| \  slide down
| h  hammer-on
| p  pull-off
| ~  vibrato
| +  harmonic
| x  Mute note

e|----------------------------------------------------------------|
B|-----------------3-------------------------------3--------------|
G|---------2---3h4---4~---4~---------------2---3h4---4~-----------|
D|-----3h4---4-------------------------3h4---4------------5----7--|
A|-2h5-----------------------------2h5--------------------5----7--|
E|--------------------------------------------------------3----5--|

e|-------------------|
B|-------------------|
G|-4----7------------|
D|-4----7----7----2--|
A|-2----5----7----2--|


Important: The song above is NOT stored on the Chordie server. The original song is hosted at www.guitaretab.com. Chordie works as a search engine and provides on-the-fly formatting. Chordie does not index songs against artists/composers will. To remove this song please click here.

This song is displayed as text-only. Transposing and tuning is only available for chordpro-songs.

Login - add to songbook

Rating click stars to rate

Layout
Accuracy

SHARE PAGE  




You need to log in to post comments