Chordie logo

Lonely   Deftones



Artist: Deftones feat Glass Jaw
Album: Wala ko kabalo..
Title: Lonely

I tab this song after i download it on limewire..
Good song but no lyrics...
I been tryng to find the lyrics but theres no lonely lyrics at all..
E-mail me at Bam_mafera@yahoo.com for more reaction..
This is not a perfect but almost perfect(for me)...

Tuning
Db Ab Db Gb Bb eb
Same as Minerva....

intro:

eb----------------|-----------------|
Bb---6-5-6-5-5h6--|--6-5-6-5-5h6----|
Gb----------------|-----------------|X2
Db----------------|-3---------------|
Ab--5-------------|-----------------|
Db----------------|-----------------|

Second part of intro:

eb----------------------------------|
Bb----------------------------------|
Gb----------------------------------|
Db----------------------------------|
Ab----------------------------------|x2 w/o distortion
Db--3p-000-3p-000-3p-000-3----------|

eb----------------------------------|
Bb----------------------------------|
Gb----------------------------------|
Db----------------------------------|
Ab----------------------------------|x2 w distortion
Db--3p-000-3p-000-3p-000-3----------| then

eb--------------------------------------|
Bb--------------------------------------|
Gb--1212121212121212\1010101010101010---|
Db--xxxxxxxxxxxxxxxx\xxxxxxxxxxxxxxxx---
Ab--1010101010101010\8-8-8-8-8-8-8-8----|
Db--------------------------------------|

Verse:
eb-----------------------------------------|
Bb-----------------------------------------|
Gb--1010101010101010/1212121212121212\7----|
Db--xxxxxxxxxxxxxxxx/xxxxxxxxxxxxxxxx\x----|
Ab--8-8-8-8-8-8-8-8-/1010101010101010\5----|x4 w/o distortion
Db-----------------------------------------|
   OR(still d same)
eb--------------------------------------|
Bb--------------------------------------|
Gb--1010101010101010/1212121212121212\--|
Db--xxxxxxxxxxxxxxxx/xxxxxxxxxxxxxxxx\0-
Ab--8-8-8-8-8-8-8-8-/1010101010101010\0-|x4 w/o distortion
Db------------------------------------0-|

eb--------------------------------------|
Bb--------------------------------------|
Gb--1010101010101010/1212121212121212\--|
Db--xxxxxxxxxxxxxxxx/xxxxxxxxxxxxxxxx\0-
Ab--8-8-8-8-8-8-8-8-/1010101010101010\0-|x4 w/o distortion
Db------------------------------------0-|

Chorus:

eb----------------------------------|
Bb----------------------------------|
Gb----------------------------------|
Db----------------------------------|
Ab----------------------------------|x2 w/o distortion
Db--3p-000-3p-000-3p-000-3----------|

eb----------------------------------|
Bb----------------------------------|
Gb----------------------------------|
Db----------------------------------|
Ab----------------------------------|x3 w distortion
Db--3p-000-3p-000-3p-000-3----------| then

eb--------------------------------------|
Bb--------------------------------------|
Gb--1212121212121212\1010101010101010---|
Db--xxxxxxxxxxxxxxxx\xxxxxxxxxxxxxxxx---
Ab--1010101010101010\8-8-8-8-8-8-8-8----|
Db--------------------------------------|

then run through Verse and chorus:

Bridge:
eb----------------------------------|
Bb----------------------------------|
Gb----------------------------------|

Db----------------------------------|
Ab---5-5-5-5-5-5--------------------|x4
Db--0-0-0-8-7-7-7-------------------|then the heavy part!!!

eb----------------------------------|
Bb----------------------------------|
Gb-----7777/1010-1010---------------|
Db--00-xxxx/------------------------|
Ab--00-5555/8-8--8-8----------------|x3 then
Db--00------------------------------|

eb--------------------------------------|
Bb--------------------------------------|
Gb--1010101010101010/1212121212121212---|the bass will work at this time..
Db--xxxxxxxxxxxxxxxx/xxxxxxxxxxxxxxxx---
Ab--8-8-8-8-8-8-8-8-/1010101010101010---|
Db--------------------------------------|

then jump to the chorus:..
So thats it...
I hope u like it...

******************************************************************
==========Greetings to my beloved who does not loved me===========
******************************************************************

I just want to gret my frends in UM tagum..
To Charlie ,Ace ,Opaw ,Ian my bro, Ching,jimboi ,neil ,labli..
My classmate... apol,erik,shooh,loloy,otching,che2x,mei,yvet,jojie,gaga,
joan ,heizle ,rhea and especially to Jen....



Important: The song above is NOT stored on the Chordie server. The original song is hosted at www.guitaretab.com. Chordie works as a search engine and provides on-the-fly formatting. Chordie does not index songs against artists/composers will. To remove this song please click here.

This song is displayed as text-only. Transposing and tuning is only available for chordpro-songs.

Login - add to songbook

Rating click stars to rate

Layout
Accuracy

SHARE PAGE  

You need to log in to post comments