Guitar Tabs, Chords and Lyrics


Riviere   Deftones



Deftones - Riviere
Tabbed by FTD
Tuning: Drop C (C,G,C,F,A,D)

Verse:
D|--------0--------0---0--0--0-0-0-----------0-0-----0-----------0-0-0-----|
A|-----10-10-------5-5-5--5--5-5-5----10-10-10-10-10-10-----5--5-5-5-5-----|
F|-----11-11----6--6-6-6--6--6-6-6----11-11-11-11-11-11---6-6--6-6-6-6-----|
C|-----x--x-----x--x-x-x--4--4-4-4----x--x--x--x--x--x----x-4--x-4-4-4-----|
G|--9--9--9-----4----4-4--4----4-4----9--9--9--9----------4-4--4-4-4-4-----|
C|-0----------------------------------0------------------------------------|

Bridge:
D|-----------------------------------------|
A|-----------------------------------------|
F|-----------------------------------------|
C|-----^4------4----------^4-----4---------|
G|---------------5-0---------------5-0-----|
C|-2-2-----2-2--------2-2----2-2-----------|

Chorus:
D|-------------------------------------------0--0--0-----------0--0--0----------0--0--0--0--0------|
A|-------------------------12--12-12-12--12--12-12-12---10--10-10-10-10--10--10-10-10-10-10-10-10--|
F|--7--7-7-7--7--7-7-7-----13--13-13-13--13--13-13-13---11--11-11-11-11--11--11-11-11-11-11-11-11--|
C|--x--x-x-x--x--x-x-x-----x---x--x--x---x---x--x--x----9---9--9--9--9---9---9--9--9--9--9--9--9---|
G|--5--5-5-5--5--5-5-5-----11--11-11-11--11--11-11-11---9---9--9--9--9---9---9--9--9--9--9--9--9---|
C|--0---------0------------------------------------------------------------------------------------|

Ending bridge:
D|-------------------------------------------|
A|-------------------------------------------|
F|-------------------------------------------|
C|-------------------------------------------|
G|-------------------------------------------|
C|-2-2-2-2--4-4-4-4--2-2-2-2-2-2--4-4-4-4----|




Important: The song above is NOT stored on the Chordie server. The original song is hosted at www.guitaretab.com. Chordie works as a search engine and provides on-the-fly formatting. Chordie does not index songs against artists'/composers' will. To remove this song please click here.

This song is displayed as text-only. Transposing and tuning is only available for chordpro-songs.

Login - add to songbook

Rating click stars to rate

Layout
Accuracy

SHARE PAGE  




You need to log in to post comments