Guitar Tabs, Chords and Lyrics


Amenity   Delain



----------------------------------------------------------------------------
                         Amenity - Delain
----------------------------------------------------------------------------

hey.. i hope you understand it =P

Tabbed by: Devy

e|--------------------------------------------------------------------|
B|--------------------------------------------------------------------|
G|--------------------------------------------------------------------|
D|-------------------7777-----------7777/1010/99----------------7777--|
A|----/77777777/5555-5555--77777777-5555/-8-8/77--77777777/5555-5555--|
E|----/55555555/3333-------55555555---------------55555555/3333-------|

e|---------------|
B|---------------|
G|---5---3-------|
D|---5---3---5---|
A|---3---2---5---|
E|-----------3---|

e|---------------------------------------------------------------------|
B|---------------------------------------------------------------------|
G|---------------------------------------------------------------------|
D|-------------------7777-----------7777/1010/99----------------7777---|
A|----77777777/5555-5555--77777777-5555/-8-8/77--77777777/5555-5555----|
E|----55555555/3333-------55555555---------------55555555/3333---------|

e|---------------|
B|---------------|
G|---5---3-------|
D|---5---3---5---|
A|---3---2---5---|
E|-----------3---|

e|----------------------------------|
B|----------------------------------|
G|----------------------------------|
D|---999-----999-----999-----15-----|
A|---999-----777-----999-----15-----|


Important: The song above is NOT stored on the Chordie server. The original song is hosted at www.guitaretab.com. Chordie works as a search engine and provides on-the-fly formatting. Chordie does not index songs against artists'/composers' will. To remove this song please click here.

This song is displayed as text-only. Transposing and tuning is only available for chordpro-songs.

Login - add to songbook

Rating click stars to rate

Layout
Accuracy

SHARE PAGE  




You need to log in to post comments