Chordie logo

Kingdom Of Comfort  Delirious?

-------------------------------------------------------------------------------



-------------------------------------------------------------------------------

















e|-------------------------|-----------------------|


B|------1------------1-----|-----1-----------------|


G|--------0------------0---|-------0--------0----0-| etc...


D|----0-----0------0-----0-|---0-----0-----0----0--|


A|-1------------0----------|-----------------------|


D|-------------------------|-0-----------2----3----|













I [Dm]built myself a [C]happy ho[Dm]me
[Bb]In my palace,[F/A] on my ow[Dm]n.
My c[Dm]astle falling [C]in the sand
[A/C#]Pull me out, g[Dm]rab my hand
[Bb]I just forgot where [F/A]I came from.[Dm]

CHORUS

VERSE 2
I [Dm]rob myself of i[C]nnocence[Dm]
With the p[Bb]oison of indi[F/A]fference [Dm]
I bu[Dm]y my stuff at [C]any cost
A c[A/C#]ouple of clicks and I p[Dm]ay the price
Cos w[Bb]hat I gain is so[F/A]meone else's [Dm]loss.

CHORUS

INSTRUMENTAL/"Lament"
Bb5 A5 G5 F5 E (x8) (NOTE: 5-bar phrase, listen for the rhythm)

OUTRO (RIFF)
Save me, save me
From the kingdom of comfort where I am king,
To this kingdom of heaven where You are king.
~~~~~~~~~~~~~~~~~~~~~~~~~~~~~~~~~~~~~~~~~~~~

CHORDS:
Dm:   x-x-0-2-3-1-|

C: x-3-2-0-1-0-|
Bb: x-1-3-3-3-1-|
F/A: x-0-3-2-1-1-|
A/C#: x-4-2-2-2-x-|
Bb5: 8-8-8-x-x-x-|
A5: 7-7-7-x-x-x-|
G5: 5-5-5-x-x-x-|
F5: 3-3-3-x-x-x-|
E: 2-2-2-1-0-0-|

Important: The song above is NOT stored on the Chordie server. The original song is hosted at www.guitaretab.com. Chordie works as a search engine and provides on-the-fly formatting. Chordie does not index songs against artists/composers will. To remove this song please click here.

A/C# Bb C Dm
variations - click chord images

Login - add to songbook

Transpose chords

Tuning

Rating click stars to rate

Layout
Accuracy

SHARE PAGE  

You need to log in to post comments